idwyb v1

(/) Slide Up  (\) Slide Down  (h) Hammer On  (p) Pull Off  (b) Bend (r) Release (v) Vibrato

E|-8-3-6-3-1---|-----1-3---1-3-1-|-----1-3-6-|---1-4-3-1---|-----1-3---1-3-1-|-
B|-----------4-|-4-1-----1-------|-4-4-------|-4---------4-|-4-1-----1-------|-
G|-------------|-----------------|-----------|-------------|-----------------|-
D|-------------|-----------------|-----------|-------------|-----------------|-
A|-------------|-----------------|-----------|-------------|-----------------|-
E|-------------|-----------------|-----------|-------------|-----------------|-



E|-6-6-4-3-1---|---1-3-6-|---1-3-4-3-|---1-|-
B|-----------4-|-4-------|-4---------|-4---|-
G|-------------|---------|-----------|-----|-
D|-------------|---------|-----------|-----|-
A|-------------|---------|-----------|-----|-
E|-------------|---------|-----------|-----|-



E|-----3-3-3-3-1-1-1---1---1-3-1-------3-3-3-3---3-1-1-1---3-1-1-|-------3-3-3-3-1-1-1---1-
B|-4-1---------------4---4-------4-1-1---------4---------4-------|-4-4-1---------------4---
G|---------------------------------------------------------------|-------------------------
D|---------------------------------------------------------------|-------------------------
A|---------------------------------------------------------------|-------------------------
E|---------------------------------------------------------------|-------------------------



E|---1-3-1-----|-------3-1-|-|-----3-1-1---3-1--------|-
B|-4-------4-1-|---1-1-----|-|-4-1-------4-----4/6----|-
G|-------------|-3---------|-|------------------------|-
D|-------------|-----------|-|------------------------|-
A|-------------|-----------|-|------------------------|-
E|-------------|-----------|-|------------------------|-



E|-----------------------|-----------3--1--1-----3--1-------------|--
B|-----1--4--4--1--4--1--|-----1--1-----------4--------4/6--------|--
G|--3--------------------|--3-------------------------------------|--
D|-----------------------|----------------------------------------|--
A|-----------------------|----------------------------------------|--
E|-----------------------|----------------------------------------|--



E|-------------
B|-------------
G|-3-3-1-0-----
D|---------3-1-
A|-------------
E|-------------
http://www.guitartabcreator.com
Guitar Tab Creator is intended to store guitar tab created through the tool. It currently does not support in-line text editing. Any text you place in here will be lost. If you need to comment on your tab, please use the "Tab Notes" section located below.