I See Your Faces / Forest of Puppets / All of us, Puppets

(/) Slide Up  (\) Slide Down  (h) Hammer On  (p) Pull Off  (b) Bend (r) Release (v) Vibrato

E|------------------------|-----------------------------|---------------------|-
B|---1-3--1-1----1-3--1-1-|-----------------------------|---------------------|-
G|-2-----------2----------|-3-3-3--2-2--0---0----0-2----|---3--2-2----0-------|-
D|------------------------|---------------3----3--------|-3---------3----3--3-|-
A|------------------------|-----------------------------|---------------------|-
E|------------------------|-----------------------------|---------------------|-



E|--5--1--|--
B|--6--1--|--
G|--7--2--|--
D|--5--3--|--
A|--5--3--|--
E|--6--1--|--



E|-----------|--
B|--6--1--3--|--
G|--7--0--2--|--
D|--5--2--0--|--
A|-----3-----|--
E|--6--------|--



E|-1-1--0-----------1-1--0---------|---1--0-1--3-1--1--1--0------|-
B|---------1--3-1-----------1-3-3--|-3-----------------------1-3-|-
G|---------------------------------|-----------------------------|-
D|---------------------------------|-----------------------------|-
A|---------------------------------|-----------------------------|-
E|---------------------------------|-----------------------------|-



E|-1-1--0---------1-1--0---------|---1--0-1-3--1--1--8--5--3p1-1-
B|---------1-3-1----------1-3-3--|-3-----------------------------
G|-------------------------------|-------------------------------
D|-------------------------------|-------------------------------
A|-------------------------------|-------------------------------
E|-------------------------------|-------------------------------



E|----------5-|-6--5--3--1/3----|----0--1--3-1--0-----0-
B|-6-1-3------|---------------1-|-3----------------3----
G|-7-0-2------|-----------------|-----------------------
D|-5-2-0------|-----------------|-----------------------
A|---3--------|-----------------|-----------------------
E|-6----------|-----------------|-----------------------
http://www.guitartabcreator.com
Guitar Tab Creator is intended to store guitar tab created through the tool. It currently does not support in-line text editing. Any text you place in here will be lost. If you need to comment on your tab, please use the "Tab Notes" section located below.