I Am the Doctor (violin), bits & bobs

(/) Slide Up  (\) Slide Down  (h) Hammer On  (p) Pull Off  (b) Bend (r) Release (v) Vibrato


E|-------------------------------------------------------------------------------------------------
B|-------------------------------------------------------------------------------------------------
G|-0-0-3-3-0-0-3-3-0-0-3-3-0-0-3-3-----3-3-----3-3-----3-3-----3-3-0-0-5-5-0-0-5-5-0-0-5-5-0-0-5-5-
D|---------------------------------5-5-----5-5-----5-5-----5-5-------------------------------------
A|-------------------------------------------------------------------------------------------------
E|-------------------------------------------------------------------------------------------------



E|---------------------------------------------------------
B|---5-3-2----0-5-3-2-0------5-3-2-0--------5-3-2-0-2----0-
G|-0--------5------------3-5---------5--2-5------------5---
D|---------------------------------------------------------
A|---------------------------------------------------------
E|---------------------------------------------------------



E|----------------|----------------|----------------|----------------|-
B|-3-3-3-3--3-3-2-|-3-3-3-3--3-3-2-|-----2------2---|-----2------2---|-
G|----------------|----------------|-5-5---5--5---5-|-5-5---5--5---5-|-
D|----------------|----------------|----------------|----------------|-
A|----------------|----------------|----------------|----------------|-
E|----------------|----------------|----------------|----------------|-



E|-----------------|-
B|-----------------|-
G|-------0---------|-
D|-2-4-5---5-4-2-0-|-
A|-----------------|-
E|-----------------|-



E|----------------|-----------------|-
B|-5-5-5--5-5-5-3-|-5-5-5-5-5-5-5-3-|-
G|----------------|-----------------|-
D|----------------|-----------------|-
A|----------------|-----------------|-
E|----------------|-----------------|-



E|-----------------|-------------------|---------------------|-------------------|-
B|-----------------|-------------------|---------------------|-------------------|-
G|-----0-1-------0-|-------0-1-------0-|-------0-1-1-2-2-2-1-|-------0-1---------|-
D|-0-3-----3-6-6---|-0-0-3-----3-6-6---|-0-0-3---------------|-0-0-3-----3-5-5-6-|-
A|-----------------|-------------------|---------------------|-------------------|-
E|-----------------|-------------------|---------------------|-------------------|-



E|---------|---------|-------0-|-1-3-5-7-|-8--8-7-6-5-4-|-----|-----|----------|-
B|---------|-------1-|-2-4-5---|---------|--------------|-5-1-|-----|----------|-
G|-0-2-3-5-|-3-5-6---|---------|---------|--------------|-----|-6-3-|------1-5-|-
D|---------|---------|---------|---------|--------------|-----|-----|-6--3-----|-
A|---------|---------|---------|---------|--------------|-----|-----|----------|-
E|---------|---------|---------|---------|--------------|-----|-----|----------|-



E|-
B|-
G|-
D|-
A|-
E|-
http://www.guitartabcreator.com
Guitar Tab Creator is intended to store guitar tab created through the tool. It currently does not support in-line text editing. Any text you place in here will be lost. If you need to comment on your tab, please use the "Tab Notes" section located below.