I Am The Doctor - bit by bit, 1st draft

(/) Slide Up  (\) Slide Down  (h) Hammer On  (p) Pull Off  (b) Bend (r) Release (v) Vibrato


E|---0-1-3-1-0---0-|---
B|-3-----------3---|---
G|-----------------|---
D|-----------------|---
A|-----------------|---
E|-----------------|---



E|-10-8-|-10-10-10--10-10-10-8-|-10-10-10--10-10-10-8-|---
B|------|----------------------|----------------------|---
G|------|----------------------|----------------------|---
D|------|----------------------|----------------------|---
A|------|----------------------|----------------------|---
E|------|----------------------|----------------------|---



E|-10--10--10-10--10--10--8-|---
B|--------------------------|---
G|--------------------------|---
D|--------------------------|---
A|--------------------------|---
E|--------------------------|---



E|---|---|---|--------|------0-|-1----0-|----------|--------|---
B|-3-|---|-1-|------1-|-3------|--------|-1--3---1-|-3----1-|-3-
G|---|-3-|---|-3------|--------|--------|----------|--------|---
D|---|---|---|--------|--------|--------|----------|--------|---
A|---|---|---|--------|--------|--------|----------|--------|---
E|---|---|---|--------|--------|--------|----------|--------|---



E|------0-|-1----1-0-|----------|------|---|-|-
B|-3------|----------|-1------1-|-3----|-3-|-|-
G|--------|----------|------2---|------|---|-|-
D|--------|----------|----------|------|---|-|-
A|--------|----------|----------|------|---|-|-
E|--------|----------|----------|------|---|-|-



E|---1-5-6--1-4--4--5-|-----1-5-6--1-4-4-5-|-----1-5-6--7-7-6-|-----1-5-6-1-3-3-4-|-
B|-3------------------|-3-3----------------|-3-3--------------|-3-3---------------|-
G|--------------------|--------------------|------------------|-------------------|-
D|--------------------|--------------------|------------------|-------------------|-
A|--------------------|--------------------|------------------|-------------------|-
E|--------------------|--------------------|------------------|-------------------|-



E|------------|------------|-------0-|-1-3-5-7-|-8---8-7-6-5-4-|-----------|----------|---
B|------------|------------|-0-2-3---|---------|---------------|-3---------|----------|---
G|----------0-|----0--1--3-|---------|---------|---------------|------3----|-1--------|---
D|-0--2--3----|-3----------|---------|---------|---------------|-----------|------3---|---
A|------------|------------|---------|---------|---------------|-----------|----------|---
E|------------|------------|---------|---------|---------------|-----------|----------|---



E|----------|---
B|----------|---
G|----------|-0-
D|--------1-|---
A|-4---1----|---
E|----------|---



E|-10-|-10--10--10--10-10--10--10--10-|-13--13--13--13-13--13--13--13-|-10--11--12--13-|-13-13---
B|----|-------------------------------|-------------------------------|----------------|---------
G|----|-------------------------------|-------------------------------|----------------|---------
D|----|-------------------------------|-------------------------------|----------------|---------
A|----|-------------------------------|-------------------------------|----------------|---------
E|----|-------------------------------|-------------------------------|----------------|---------



E|---------
B|-3---1-3-
G|-2-3-0-0-
D|-0-3-2-0-
A|---1-3---
E|-------3-



E|-
B|-
G|-
D|-
A|-
E|-



E|-----1-1-----1-1-----1-1-----1-1-|-----1-1-----1-1-----1-1-----1-1-|-
B|-3-3-----3-3-----3-3-----3-3-----|-1-1-----1-1-----1-1-----1-1-----|-
G|---------------------------------|---------------------------------|-
D|---------------------------------|---------------------------------|-
A|---------------------------------|---------------------------------|-
E|---------------------------------|---------------------------------|-



E|-----3-3-----3-3-----3-3-----3-3-|-----1-1-----1-1-----1-1-----1-1-|-
B|-3-3-----3-3-----3-3-----3-3-----|-3-3-----3-3-----3-3-----3-3-----|-
G|---------------------------------|---------------------------------|-
D|---------------------------------|---------------------------------|-
A|---------------------------------|---------------------------------|-
E|---------------------------------|---------------------------------|-



E|-------10-10-------10-10-------10-10-------10-10-|-------8-8-------8-8-------8-8-------8-8-|-
B|-10-10-------10-10-------10-10-------10-10-------|-10-10-----10-10-----10-10-----10-10-----|-
G|-------------------------------------------------|-----------------------------------------|-
D|-------------------------------------------------|-----------------------------------------|-
A|-------------------------------------------------|-----------------------------------------|-
E|-------------------------------------------------|-----------------------------------------|-



E|-----10-10-----10-10-----10-10-----10-10-|-------10-10-------10-10-------10-10-------10-10-|-
B|-8-8-------8-8-------8-8-------8-8-------|-10-10-------10-10-------10-10-------10-10-------|-
G|-----------------------------------------|-------------------------------------------------|-
D|-----------------------------------------|-------------------------------------------------|-
A|-----------------------------------------|-------------------------------------------------|-
E|-----------------------------------------|-------------------------------------------------|-



E|---|-0-1-|--------------|----------|--------0-|-1----3-----|-3----3-5-|-6---5--3--|-
B|-3-|-----|-5-3-1---3----|-1-3----5-|-3----4---|----------5-|----------|-----------|-
G|---|-----|--------------|----------|----------|------------|----------|-----------|-
D|---|-----|--------------|----------|----------|------------|----------|-----------|-
A|---|-----|--------------|----------|----------|------------|----------|-----------|-
E|---|-----|--------------|----------|----------|------------|----------|-----------|-



E|---
B|---
G|---
D|---
A|---
E|---



E|-7--3--6--|-
B|----------|-
G|----------|-
D|----------|-
A|----------|-
E|----------|-



E|---10-8-7---3-|-5-10-8-7-5---1-|-3-10-8-7-5-3-0-|-3-10-8-7-5-7-3---
B|--------------|----------------|----------------|------------------
G|-2------------|----------------|----------------|------------------
D|--------------|----------------|----------------|------------------
A|--------------|----------------|----------------|------------------
E|--------------|----------------|----------------|------------------



E|-5-10-8-7-
B|----------
G|----------
D|----------
A|----------
E|----------
http://www.guitartabcreator.com

This is fantastic! Thanks so

This is fantastic!

Thanks so much for making this! Do you know when we can expect another draft or the final product?

Guitar Tab Creator is intended to store guitar tab created through the tool. It currently does not support in-line text editing. Any text you place in here will be lost. If you need to comment on your tab, please use the "Tab Notes" section located below.