The Hitchhiker's Guide To The Galaxy (violin)

(/) Slide Up  (\) Slide Down  (h) Hammer On  (p) Pull Off  (b) Bend (r) Release (v) Vibrato


E|---------------|-------------------------------------------------------|---
B|---------------|-------------------------------------------------------|---
G|-3-1---5-3-1---|----1------3-1----0h1h0------3-1---------1-0---5-3-1---|---
D|-----5-------5-|--5---3--------5--------2--------5----1------5-------5-|---
A|---------------|-------------------------------------------------------|---
E|---------------|-------------------------------------------------------|---



E|-----------------------------------------------------------|-----------|-
B|-----------------------------------------------------------|--------2--|-
G|-3-1----5-3-1------3-1----0h1h0------3-1---------3-1-------|-----------|-
D|-----5--------3--------5--------2--------5---1-------5-3-5-|-5--3-5----|-
A|-----------------------------------------------------------|-----------|-
E|-----------------------------------------------------------|-----------|-



E|------------------|------------------|------------------|------------|-
B|-1-0--------------|-1-0--------------|-1-0--------------|------------|-
G|------5-3-1-0-----|------5-3-1-0-----|------5-3-1-0-----|-1-3--1-0---|-
D|--------------5-5-|--------------5-5-|--------------5-5-|----------5-|-
A|------------------|------------------|------------------|------------|-
E|------------------|------------------|------------------|------------|-
http://www.guitartabcreator.com
Guitar Tab Creator is intended to store guitar tab created through the tool. It currently does not support in-line text editing. Any text you place in here will be lost. If you need to comment on your tab, please use the "Tab Notes" section located below.