Healing K v1

(/) Slide Up  (\) Slide Down  (h) Hammer On  (p) Pull Off  (b) Bend (r) Release (v) Vibrato

Stave 1:

E|--------------|---------|-------2-|-------|-----2-|---------|-------------------|-
B|-0-2--3-0-2-3-|-2-3-2-3-|-0-2-3---|-------|-2-2---|-2-3-2-3-|-0/3/2-0/3/2-0/3/2-|-
G|--------------|---------|---------|-------|-------|---------|-------------------|-
D|--------------|---------|---------|-----0-|-------|---------|-------------------|-
A|--------------|---------|---------|-2-4---|-------|---------|-------------------|-
E|--------------|---------|---------|-------|-------|---------|-------------------|-

Stave 2:

E|-|------|-----------------|-----------------|-|---7---7---7---7-|--------------|---7---7---7---7-|-
B|-|-0--0-|-----------------|-----------------|-|---5---5---5---5-|-/3-3-3/2-2/0-|---5---5---5---5-|-
G|-|------|-0---0---2---2---|-4---4---4---4---|-|-4---4---4---4---|--------------|-4---4---4---4---|-
D|-|------|-----------------|-----------------|-|-----------------|--------------|-----------------|-
A|-|------|-----------0---0-|-----------------|-|-----------------|--------------|-----------------|-
E|-|------|---3---3---------|---0---0---0---0-|-|-----------------|--------------|-----------------|-

Stave 3:

E|-----------------|-----------------|-----------------|-------7---7---7---7-|-------------------|-
B|-----------------|-----------------|-3---3---3---3-2-|-2/0---5---5---5---5-|-3---3---3---3-----|-
G|---0---0---2---2-|---4---4---4---4-|---0---0---2---2-|-----4---4---4---4---|---0---0---2---2/4-|-
D|-----------------|-----------------|-----------------|---------------------|-------------------|-
A|---------0---0---|-----------------|---------0---0---|---------------------|---------0---0-----|-
E|-3---3-----------|-0---0---0---0---|-3---3-----------|-0-------------------|-3---3-------------|-

Stave 4:

E|---7-|-|-|-----------------|-------7---7---7-|-|-------------5/2-|---7---7---7---7-|-
B|---5-|-|-|-3---3---3/2-2---|-2/0-0-5---5---5-|-|-3---3---2-------|---7---7---7---7-|-
G|-4---|-|-|---0---0---2---2-|---4-----4---4---|-|---0---0---2-----|---7---7---7---7-|-
D|-----|-|-|-----------------|-----------------|-|-----------------|-----------------|-
A|-----|-|-|---------0---0---|-----------------|-|---------0---0---|-----------------|-
E|-----|-|-|-3---3-----------|-0---------------|-|-3---3-----------|-7---7---7---7---|-

http://www.guitartabcreator.com
Guitar Tab Creator is intended to store guitar tab created through the tool. It currently does not support in-line text editing. Any text you place in here will be lost. If you need to comment on your tab, please use the "Tab Notes" section located below.