GMS mark1

(/) Slide Up  (\) Slide Down  (h) Hammer On  (p) Pull Off  (b) Bend (r) Release (v) Vibrato
E|--2--2--0--2--|--2--2--0-----|--
B|--4--4--2--4--|--4--4--2-----|--
G|--4--4--1--4--|--4--4--1--4--|--
D|--4--4--2--4--|--4--4--2--4--|--
A|--2--2--0--2--|--2--2--0--2--|--
E|--2--2--0--2--|--2--2--0--2--|--



E|-----------------------------------------------------------|-----0--
B|-----0--0-----0--0-----0--0-----0--0--4--------4--------2--|--4-----
G|--1--------1-----------------------------4--4-----4--4--3--|--------
D|--------------------4--------4-----------------------------|--------
A|-----------------------------------------------------------|--------
E|-----------------------------------------------------------|--------



E|--2--5--0--|------------------------0--|--2--5--0--|--
B|--4--4--0--|--4--0--2--4--2------4-----|--4--4--0--|--
G|--4--5--1--|---------------------------|--4--5--1--|--
D|--4-----2--|--------2-----4------------|--4-----2--|--
A|--2-----2--|--2------------------------|--2-----2--|--
E|--2--------|---------------------------|--2--------|--



E|--0-----------|-----0-----------
B|-----4--2--0--|--0-----4--2--0--
G|-----------1--|-----------------
D|--2--4--2-----|-----2--4--2--1--
A|--------------|-----------------
E|--------------|-----------------



E|-----------------------------------------------------------|-----0--
B|-----0--0-----0--0-----0--0-----0--0--4--------4--------2--|--4-----
G|--1--------1-----------------------------4--4-----4--4--3--|--------
D|--------------------4--------4-----------------------------|--------
A|--------------------------------------2--------------------|--------
E|--0-----------------2-----------------------------------2--|--------



E|--------------------------------------------------|-----
B|-----0-----0-----0-----0-----------2-----0-----0--|-----
G|-----------------------------1--------------------|-----
D|--------------------------2-----2-----------------|-----
A|--2-----2-----2-----2-----------------2-----2-----|-----
E|--------------------------------------------------|-----



E|------------------|------0----------------0--2--0-----
B|-------0----------|---------4--2--0----0-----------4--
G|----------4-------|---------2-----1-------------------
D|---------------4--|------2--4--2----------2--4--2-----
A|--2---------------|-----------------------------------
E|------------------|-----------------------------------
http://www.guitartabcreator.com
Guitar Tab Creator is intended to store guitar tab created through the tool. It currently does not support in-line text editing. Any text you place in here will be lost. If you need to comment on your tab, please use the "Tab Notes" section located below.