F's M v1

(/) Slide Up  (\) Slide Down  (h) Hammer On  (p) Pull Off  (b) Bend (r) Release (v) Vibrato


E|-------------------------|-------------------------|-
B|-------------------------|-------------------------|-
G|-------------------------|-------------------------|-
D|-------------------------|-----------------1-1-1-1-|-
A|---------2-2-3-3---------|---------2-2-3-3---------|-
E|-4-4-4-4---------3-3-3-3-|-4-4-4-4-----------------|-



E|---------------------------3-3-3--3-3-3-|---------------------------|---|---|---|---|---|---|-
B|--------------0-0-0-1-1-1---------------|-0-0-0-1-1-1--1-1-1--1-1-1-|-0-|-1-|-0-|-1-|-0-|-1-|-
G|-1-1-1--1-1-1--------------0-0-0--0-0-0-|---------------------------|---|---|---|---|---|---|-
D|----------------------------------------|---------------------------|---|---|---|---|---|---|-
A|----------------------------------------|--------------3-3-3--3-3-3-|---|---|---|---|---|---|-
E|----------------------------------------|---------------------------|---|---|---|---|---|---|-
http://www.guitartabcreator.com
Guitar Tab Creator is intended to store guitar tab created through the tool. It currently does not support in-line text editing. Any text you place in here will be lost. If you need to comment on your tab, please use the "Tab Notes" section located below.