Forgetting Mary

(/) Slide Up  (\) Slide Down  (h) Hammer On  (p) Pull Off  (b) Bend (r) Release (v) Vibrato


E|--------------------|---0-------------------|---------------|-----1-3-|-0---------------|-
B|---1----1----1----1-|-3---1-3-----1---1---1-|---1---1---1---|-3-1-----|---1---1---1---1-|-
G|-2----0-------------|---------2-0-----------|-0-------------|-0-------|-2---0-----------|-
D|-----------3----2---|---------------3---2---|-----3---2---3-|---------|---------3---2---|-
A|--------------------|-----------------------|---------------|---------|-----------------|-
E|--------------------|-----------------------|---------------|---------|-----------------|-



E|-------1-3-|-5-8---8---8-------|-|-|-5-8---8---8-------------|------------------3-|-
B|-3-3-1-----|-----8---6---5-6-8-|-|-|-----8---6---5-3-1-3-3-1-|---1---1---1--------|-
G|-0---------|-------------------|-|-|-------------------0-----|-2---0--------------|-
D|-----------|-------------------|-|-|-------------------------|---------4---3------|-
A|-----------|-------------------|-|-|-------------------------|--------------------|-
E|-----------|-------------------|-|-|-------------------------|--------------------|-
http://www.guitartabcreator.com
Guitar Tab Creator is intended to store guitar tab created through the tool. It currently does not support in-line text editing. Any text you place in here will be lost. If you need to comment on your tab, please use the "Tab Notes" section located below.