Follow You Down To The Red Oak Tree, v1

(/) Slide Up  (\) Slide Down  (h) Hammer On  (p) Pull Off  (b) Bend (r) Release (v) Vibrato
E|---------|-
B|-----0---|-
G|-------0-|-
D|---2-----|-
A|---------|-
E|-0-------|-



E|---------0-----------------------------------------------
B|-0-0-0-------3-3-3---0---0---0-------0-------0-------0---
G|-------0-------0-------0-------0-------0-------0-----2-0-
D|---2-------2-------2-------2-------2-------2-------2-----
A|-----------------3---------------------------------------
E|-0-------0---------------0-------0-------0-------0-------



E|---------------------------------------------------------
B|-0---3-------3---1---1-0-0---0-------0-------0-------0---
G|-----2-0-2---0-0-------2-------0-------0-------0-----2-0-
D|---0-------0-------2-------2-------2-------2-------2-----
A|-----------------0---------------------------------------
E|-3-------3---------------0-------0-------0-------0-------



E|---------------------------------------------------------
B|-0---1-------1---1---3-------0-------0-------0-------0-0-
G|-----2-2-2---0-0-------0-------0-------0-------0-------0-
D|---2-------2-------2-------2-------2-------2-------2-----
A|-0-------0-------3---------------------------------------
E|-------------------------0-------0-------0-------0-------



E|-3-2-2---------------------------------------------|-
B|-----1---3-3-3/5-------0-------0-------0-------0---|-
G|-------2-------0---4/2-0-0-------0-------0-------0-|-
D|---2-------0-------2---------2-------2-------2-----|-
A|-0-------0-----------------------------------------|-
E|-----------------0---------0-------0-------0-------|-



E|---------|---------0-----------0-----------------------------------
B|-----0-0-|-0---0-------3-3-3---1-----0-0-------0-------0-------0---
G|-------0-|-------0-------0-------0-------0-------0-------0-----0-2-
D|---2-----|---2-------2-------2-------2-------2-------2-------2-----
A|---------|-----------------3---------------------------------------
E|-0-------|-0-------0---------------0-------0-------0-------0-------



E|---------------------------------------------------------
B|---0-3-------0-----1-1-0-0---0-------0-------0-------0---
G|-------2-2---0-0-------2-------0-------0-------0-----2-0-
D|---0-------0-------2-------2-------2-------2-------2-----
A|-----------------0---------------------------------------
E|-3-------3---------------0-------0-------0-------0-------



E|---------------------------------------------------------
B|-0---1-------1---1---3-------0-------0-------0-----0-0-0-
G|-----2-2-2---0-0-------0-------0-------0-------0-------0-
D|---2-------2-------2-------2-------2-------2-------2-----
A|-0-------0-------3---------------------------------------
E|-------------------------0-------0-------0-------0-------



E|-3---2-------0-------------------------------------
B|-----1-3-3---0-----------------0-------0-------0---
G|-------2-------0-----4/2/4-------0-------0-------0-
D|---2-------0-------2---------2-------2-------2-----
A|-0-------0-----------------------------------------
E|-----------------0---------0-------0-------0-------



E|-0---------------|-----------0-----------0-----------------------------------
B|-----0-------0---|-------3-------3-3-3---1-0---3-------3-------3-------3-----
G|-------0-------0-|-2-4---4-4-------4-------0-----0-------0-------0-----4-2---
D|---2-------2-----|-----4-------4-------2-----0-------0-------0-------0-------
A|-----------------|---2-------2-------3---------------------------------------
E|-0-------0-------|-------------------------3-------3-------3-------3---------



E|---------0-----------0-------------------------------------
B|-----3-------3-3-3---1-------3-------3-------3-------3-----
G|-4-4---4-------4-------0-----4-2-0-----0-------0-------2-0-
D|---4-------4-------2-------0-------0-------0-------0-------
A|-2-------2-------3-----------------------------------------
E|-------------------------3-------3-------3-------3---------



E|-------------------------------------------------------------
B|-0---1---------1---1---3-------0-0-----0-------0-------0-----
G|-------2-2-2---0-0-------0---2---0-------0-------0-------0---
D|---2---------2-------2-------2-------2-------2-------2-------
A|-0---------0-------3-----------------------------------------
E|---------------------------0-------0-------0-------0---------



E|-3---2-------2-0-----2-------2-------2-------2---
B|-------3-3---3-3---3---3-------3-------3-------3-
G|---2-------2-------2-------2-------2-------2-----
D|-0-------0-------0-------0-------0-------0-------
A|-------------------------------------------------
E|-------------------------------------------------



E|---------0-----------0-----------------------------------
B|-0---0-------3---3---1---0---0-------0-------0-------0-3-
G|-------0-------0-------0-------0-------0-------0-----2-0-
D|---2-------2-------2-------2-------2-------2-------2-----
A|-----------------3---------------------------------------
E|-0-------0---------------0-------0-------0-------0-------



E|-0-------------------------------------------------------
B|-0---3---3---0---3---3---0---0-------0-------0-------0-3-
G|-----2-0-2---0-0-5---4-2-4-----0-------0-------0-----2-0-
D|---0-------0-------2-------2-------2-------2-------2-----
A|-----------------0---------------------------------------
E|-3-------3---------------0-------0-------0-------0-------



E|-0-----------------
B|-0---3---3---0---1-
G|-----2-2-2---0-2---
D|---2-------2-------
A|-0-------0-------3-
E|-------------------
http://www.guitartabcreator.com
Guitar Tab Creator is intended to store guitar tab created through the tool. It currently does not support in-line text editing. Any text you place in here will be lost. If you need to comment on your tab, please use the "Tab Notes" section located below.