Flowing Destiny (Violin)

(/) Slide Up  (\) Slide Down  (h) Hammer On  (p) Pull Off  (b) Bend (r) Release (v) Vibrato


E|-7---5-7-10-7-|-7-5-2---3-2-3-5--3-5-7-10-12-7--5-3-2-0-|-0-3-2-3-0-|-
B|--------------|-------5---------------------------------|-----------|-
G|--------------|-----------------------------------------|-----------|-
D|--------------|-----------------------------------------|-----------|-
A|--------------|-----------------------------------------|-----------|-
E|--------------|-----------------------------------------|-----------|-



E|-------------------|--------------------------|---
B|-------------------|-----------------0--------|---
G|---2-5-4----2--5-4-|---2-5-4----2--5----5-4-2-|---
D|-4--------4--------|-4--------4---------------|---
A|-------------------|--------------------------|---
E|-------------------|--------------------------|---



E|-------------------|-----------------|---------------------|---------------
B|-------0---0---0-2-|-2-3-2-0-----5-2-|---------0---0---0-2-|-2-2-------5-2-
G|-5-4-5---0---5-----|---------5-4-----|-0-5-4-5---0---5-----|-----2-2-5-----
D|-------------------|-----------------|---------------------|---------------
A|-------------------|-----------------|---------------------|---------------
E|-------------------|-----------------|---------------------|---------------



E|-----------|---------|-----------------0-----------|-----------|-
B|-2-0-2-5-2-|-2-0-----|-------0---0-2-5---2-0-------|-----------|-
G|-----------|-----4-0-|-5-4-5---5-------------5-4-2-|-2-5-4-5-2-|-
D|-----------|---------|-----------------------------|-----------|-
A|-----------|---------|-----------------------------|-----------|-
E|-----------|---------|-----------------------------|-----------|-



E|-
B|-
G|-
D|-
A|-
E|-
http://www.guitartabcreator.com
Guitar Tab Creator is intended to store guitar tab created through the tool. It currently does not support in-line text editing. Any text you place in here will be lost. If you need to comment on your tab, please use the "Tab Notes" section located below.