Flowing Destiny melody

(/) Slide Up  (\) Slide Down  (h) Hammer On  (p) Pull Off  (b) Bend (r) Release (v) Vibrato


E|-7----5-7-10-7----|-7---5-2---3-2-3-5--3-5-7-10-12-7--5-3-2-0----|-0-3-2-3-0-|-
B|------------------|---------3------------------------------------|-----------|-
G|------------------|----------------------------------------------|-----------|-
D|------------------|----------------------------------------------|-----------|-
A|------------------|----------------------------------------------|-----------|-
E|------------------|----------------------------------------------|-----------|-



E|-------------------|--------------------------|-------------------|--------------------------|-
B|-------------------|--------------------------|-------------------|--------------------------|-
G|-----0---------0---|-----0---------0-2--0-----|-----0---------0---|-----0---------0-2--0-----|-
D|---2---4----2----4-|---2---4----2---------4-2-|---2---4----2----4-|---2---4----2---------4-2-|-
A|-2--------2--------|-2--------2---------------|-2--------2--------|-2--------2---------------|-
E|-------------------|--------------------------|-------------------|--------------------------|-



E|---------------------|------------------|-----------------------|------------------|-
B|-------------------0-|-0-1-0--------3-0-|---------------------0-|-0-0----------3-0-|-
G|-0---0-2-----2-0-2---|-------2-0--------|---0---0-2-----2-0-2---|------------0-----|-
D|---4-------0---------|-----------4------|-2---4-------0---------|------2---2-------|-
A|---------------------|------------------|-----------------------|------------------|-
E|---------------------|------------------|-----------------------|------------------|-



E|-----------------|-----------------|-----------------|------------|-
B|-0------0-3-0----|-0---------------|-0------0-3-0----|-0----------|-
G|------2----------|------2---0------|------2----------|------2-----|-
D|-----------------|--------4---2----|-----------------|--------4-0-|-
A|-----------------|-----------------|-----------------|------------|-
E|-----------------|-----------------|-----------------|------------|-



E|-------------------0---------------|-----------|-
B|---------------0-3---0-------------|-----------|-
G|-0---0-2---0-2----------2-0--------|---0---0---|-
D|---4------------------------4-2----|-2---4---2-|-
A|-----------------------------------|-----------|-
E|-----------------------------------|-----------|-



E|---0-3-2-----0--3-2---|---0-3-2-----0-3-5--3-2-0-|---0-3-2---0-3-2-|---0-3-2---0-3-5-3-2-0-|---
B|-0---------0----------|-0---------0--------------|-0-------0-------|-0-------0-------------|---
G|----------------------|--------------------------|-----------------|-----------------------|---
D|----------------------|--------------------------|-----------------|-----------------------|---
A|----------------------|--------------------------|-----------------|-----------------------|---
E|----------------------|--------------------------|-----------------|-----------------------|---



E|-3-2-3-5-----5-3-5-7-|-7-8-7-5-3-2--10-7-|-0-3-2-3-5---5-3-5-7-|-7-7--0---0-3-7-5----|-
B|-----------3---------|-------------------|-----------3---------|---------------------|-
G|---------------------|-------------------|---------------------|---------------------|-
D|---------------------|-------------------|---------------------|---------------------|-
A|---------------------|-------------------|---------------------|---------------------|-
E|---------------------|-------------------|---------------------|---------------------|-



E|-7----5-7-10-7-|-7----5-2-3-0-|-7----5-7-10-|-7----2---|-3-2-3-5--3-5-7-10-12-7--5-3-2-0--|-
B|---------------|--------------|-------------|--------3-|----------------------------------|-
G|---------------|--------------|-------------|----------|----------------------------------|-
D|---------------|--------------|-------------|----------|----------------------------------|-
A|---------------|--------------|-------------|----------|----------------------------------|-
E|---------------|--------------|-------------|----------|----------------------------------|-



E|-0-3-2-3-0-|-
B|-----------|-
G|-----------|-
D|-----------|-
A|-----------|-
E|-----------|-
http://www.guitartabcreator.com
Guitar Tab Creator is intended to store guitar tab created through the tool. It currently does not support in-line text editing. Any text you place in here will be lost. If you need to comment on your tab, please use the "Tab Notes" section located below.