The First Exception

(/) Slide Up  (\) Slide Down  (h) Hammer On  (p) Pull Off  (b) Bend (r) Release (v) Vibrato


E|-----0-----------|-----0-------------|-----0-----------|-------------|-
B|-4-4---4-2-4-2-0-|-4-4---4-2-4-2-2-0-|-4-4---4-2-4-2-0-|-0-0-0-------|-
G|-----------------|-------------------|-----------------|-------3-3---|-
D|-----------------|-------------------|-----------------|-----------4-|-
A|-----------------|-------------------|-----------------|-------------|-
E|-----------------|-------------------|-----------------|-------------|-



E|--------------|--------------|-
B|-0------0-2-4-|-0------2-4-4-|-
G|----3-3-------|----3-3-------|-
D|--------------|--------------|-
A|--------------|--------------|-
E|--------------|--------------|-
http://www.guitartabcreator.com
Guitar Tab Creator is intended to store guitar tab created through the tool. It currently does not support in-line text editing. Any text you place in here will be lost. If you need to comment on your tab, please use the "Tab Notes" section located below.