First Class, v1.

(/) Slide Up  (\) Slide Down  (h) Hammer On  (p) Pull Off  (b) Bend (r) Release (v) Vibrato


E|---------|---------|---------|---------------------------------|-
B|---1-----|---------|---------|---------------------------------|-
G|-0---0---|-0-3-0---|-0-2-0---|-0-1-0---0-1-0---0-3-0---0-3-0---|-
D|-------3-|-------3-|-------3-|-------3-------3-------3-------3-|-
A|---------|---------|---------|---------------------------------|-
E|---------|---------|---------|---------------------------------|-



E|---------|---------|---------|---------------------------------|-
B|---1-----|---------|---------|---------------------------------|-
G|-0---0---|-0-3-0---|-0-2-0---|-0-1-0---0-1-0---0-3-0---0-3-0---|-
D|-------3-|-------3-|-------3-|-1-----3-------3-------3-------3-|-
A|-3-------|-1-------|-3-------|-----------------5---------------|-
E|---------|---------|---------|---------------------------------|-



E|---------|----|---------|--------|-------1-|-3---6-|-5--------|------|-
B|-------1-|----|---------|-4---3--|-1-------|-------|----------|-4--3-|-
G|-----0---|-3--|-2---0---|--------|-----0---|-------|----2-0---|------|-
D|---------|----|-------3-|--------|---------|-------|--------3-|------|-
A|-3-------|----|---------|--------|---------|-------|----------|------|-
E|---------|----|---------|--------|---------|-------|----------|------|-



E|------------|-|---------|-----------|-|---------|-----------|-|---1-----|-|---------|-
B|-1-1-1--3-4-|-|-1-4-3-1-|-------3-4-|-|---4-3---|-1-1-1-3-4-|-|-1---4-3-|-|-1-4-3---|-
G|------------|-|---------|-3-3-3-----|-|-3-----3-|-----------|-|---------|-|-------3-|-
D|------------|-|---------|-----------|-|---------|-----------|-|---------|-|---------|-
A|------------|-|---------|-----------|-|---------|-----------|-|---------|-|---------|-
E|------------|-|---------|-----------|-|---------|-----------|-|---------|-|---------|-



E|-3----3-|-1----|----------|----------|-
B|----1---|------|-1--3-4-1-|-1--3-4-1-|-
G|--------|----3-|----------|----------|-
D|--------|------|----------|----------|-
A|--------|------|----------|----------|-
E|--------|------|----------|----------|-
http://www.guitartabcreator.com
Guitar Tab Creator is intended to store guitar tab created through the tool. It currently does not support in-line text editing. Any text you place in here will be lost. If you need to comment on your tab, please use the "Tab Notes" section located below.