Fire versus Snow (Katniss)

(/) Slide Up  (\) Slide Down  (h) Hammer On  (p) Pull Off  (b) Bend (r) Release (v) Vibrato


E|-------0-|-------2-|-0---------|-------0-|-------2-|-0---------|-|-|-|-----|---
B|-2---2---|-4---4---|---2---2-2-|-2---2---|-4---4---|---2-0h2-2-|-|-|-|-2h4-|---
G|---1-----|---1-----|-----1-----|---1-----|---1-----|-----------|-|-|-|-----|---
D|---------|---------|-----------|---------|---------|-----------|-|-|-|-----|---
A|---------|---------|-----------|---------|---------|-----------|-|-|-|-----|---
E|---------|---------|-----------|---------|---------|-----------|-|-|-|-----|---



E|-0-0-0-2-4---2-|-4-4-4-7-4--4-2-|-0-0-0-2-4-4-4-7-|-4---4-7-|-9-7-4--4-7-2-0-----|-
B|---------------|----------------|-----------------|---------|----------------4-2-|-
G|---------------|----------------|-----------------|---------|--------------------|-
D|---------------|----------------|-----------------|---------|--------------------|-
A|---------------|----------------|-----------------|---------|--------------------|-
E|---------------|----------------|-----------------|---------|--------------------|-



E|--------------------------|-|-
B|-0-2-2-2-4-4/5--4-2-0-2---|-|-
G|--------------------------|-|-
D|--------------------------|-|-
A|--------------------------|-|-
E|--------------------------|-|-
http://www.guitartabcreator.com
Guitar Tab Creator is intended to store guitar tab created through the tool. It currently does not support in-line text editing. Any text you place in here will be lost. If you need to comment on your tab, please use the "Tab Notes" section located below.