Drownitout

(/) Slide Up  (\) Slide Down  (h) Hammer On  (p) Pull Off  (b) Bend (r) Release (v) Vibrato

E|---------|---|-2-|---|-|-|-|-5-|-
B|-3-3-3-3-|-2-|---|-0-|-|-|-|---|-
G|---------|---|---|---|-|-|-|---|-
D|---------|---|-0-|---|-|-|-|---|-
A|-2-2-2-2-|-0-|---|---|-|-|-|---|-
E|---------|---|---|-3-|-|-|-|-3-|-



E|---7/10-9-5-7-5-2/4-|-|-|-10-9-5-7-5-2/5-----|-----------------|---|-----2-|-
B|--------------------|-|-|----------------5-3-|-2-3-2-3-2-3-2-3-|-3-|-2-3---|-
G|--------------------|-|-|--------------------|-0---------------|-2-|-------|-
D|--------------------|-|-|--------------------|-----------------|---|-------|-
A|-2------------------|-|-|--------------------|-----------------|---|-------|-
E|--------------------|-|-|--------------------|-----------------|---|-------|-



E|--------2-|--------2-|-2------2-|--------0-|-
B|-3--2-3---|-2--2-3---|----2-3---|-0--2-3---|-
G|----------|----------|----------|----------|-
D|----------|----------|-0--------|----------|-
A|-2--------|-0--------|----------|----------|-
E|----------|----------|----------|-3--------|-



E|----2-----|---2-----|-2--2-----|---------|--
B|-3----3-2-|-2---3-2-|------3-2-|-0-------|--
G|----------|---------|----------|-0-2-0---|--
D|----------|---------|-0--------|-------4-|--
A|-2--------|-0-------|----------|---------|--
E|----------|---------|----------|-3-------|--
http://www.guitartabcreator.com
Guitar Tab Creator is intended to store guitar tab created through the tool. It currently does not support in-line text editing. Any text you place in here will be lost. If you need to comment on your tab, please use the "Tab Notes" section located below.