Don't Go v2 (melody)

(/) Slide Up  (\) Slide Down  (h) Hammer On  (p) Pull Off  (b) Bend (r) Release (v) Vibrato


E|---7-6-4-2-4-6-4----2-4-6-4-2-4---2-|---7-6-4-2-4-6-4-----|-
B|-4----------------2-------------4---|-4---------------4/2-|-
G|------------------------------------|---------------------|-
D|------------------------------------|---------------------|-
A|------------------------------------|---------------------|-
E|------------------------------------|---------------------|-



E|-7-7--7-6-6-4----------2-4-6------------1-2-4---6-6--6/4-4-4-|-7/6/4-7-
B|--------------6/4-6--6-------4/2/0-4--4-------4--------------|---------
G|-------------------------------------------------------------|---------
D|-------------------------------------------------------------|---------
A|-------------------------------------------------------------|---------
E|-------------------------------------------------------------|---------



E|---7-6-4-2-4-6-4--2-2--2-7/6-----|-
B|-4---------------------------4-4-|-
G|---------------------------------|-
D|---------------------------------|-
A|---------------------------------|-
E|---------------------------------|-



E|-2-1-2-1--2h4------------4-----------|-
B|--------------7-6-7/6/4----7-6-7/6/4-|-
G|-------------------------------------|-
D|-------------------------------------|-
A|-------------------------------------|-
E|-------------------------------------|-
http://www.guitartabcreator.com
Guitar Tab Creator is intended to store guitar tab created through the tool. It currently does not support in-line text editing. Any text you place in here will be lost. If you need to comment on your tab, please use the "Tab Notes" section located below.