Discombobulate - Sherlock Holmes Movie Theme

(/) Slide Up  (\) Slide Down  (h) Hammer On  (p) Pull Off  (b) Bend (r) Release (v) Vibrato
E|-5--5--4-5-|-|-6-7--7----7-|-|-8-5--5--4-5-|-
B|-----------|-|---------6---|-|-------------|-
G|-----------|-|-------------|-|-------------|-
D|-----------|-|-------------|-|-------------|-
A|-----------|-|-------------|-|-------------|-
E|-----------|-|-------------|-|-------------|-



E|-----0-----0-----0-----|-----
B|-----------------------|-----
G|-----2-----2-----2-----|-----
D|--0--0--0--0--0--0--0--|-----
A|--5-----5-----5-----5--|-----
E|--0-----0-----0-----0--|-----



E|--5v----5--4--5--|--5--6--7----7-----7--|--7--8--5----5--4--5--|--5-----5--|--
B|-----------------|----------------6-----|----------------------|-----6-----|--
G|-----------------|----------------------|----------------------|-----------|--
D|-----------------|----------------------|----------------------|-----------|--
A|-----------------|----------------------|----------------------|-----------|--
E|-----------------|----------------------|----------------------|-----------|--

http://www.guitartabcreator.com
Guitar Tab Creator is intended to store guitar tab created through the tool. It currently does not support in-line text editing. Any text you place in here will be lost. If you need to comment on your tab, please use the "Tab Notes" section located below.