Diamond Dogs

(/) Slide Up  (\) Slide Down  (h) Hammer On  (p) Pull Off  (b) Bend (r) Release (v) Vibrato


E|-----------|-----------|--
B|-----------|-----------|--
G|--2--2--1--|--2--2--1--|--
D|--2--2--0--|--2--1--2--|--
A|--3--0--2--|-----0--2--|--
E|-----3-----|-----2-----|--



E|--0--0--0--0--|-----------|--
B|--0--0--3--2--|--1--------|--
G|--1--0--0--0--|--0--2--1--|--
D|--0--1--0--2--|--2--2--2--|--
A|--2--0--2--0--|-----3--2--|--
E|--0--2--1--0--|-----------|--
http://www.guitartabcreator.com
Guitar Tab Creator is intended to store guitar tab created through the tool. It currently does not support in-line text editing. Any text you place in here will be lost. If you need to comment on your tab, please use the "Tab Notes" section located below.