Dark Cloud Theme (violin)

(/) Slide Up  (\) Slide Down  (h) Hammer On  (p) Pull Off  (b) Bend (r) Release (v) Vibrato


E|-------------------|-------------------|-
B|-------0-0---------|-------------------|-
G|---4-2-----6-4-2-4-|---0---2-0---------|-
D|-4-----------------|-4---6-----6-4-2-4-|-
A|-------------------|-------------------|-
E|-------------------|-------------------|-



E|------------------|----------------------|------------------|---------------|-
B|-------0-0--------|----------------------|-------2-0--------|---------------|-
G|---4-2------4-2-4-|-0-2-2-4-0-0----------|---4-2------4-2-4-|-0-2--4--------|-
D|-4----------------|--------------6-4-6-2-|-4----------------|--------6-2-4--|-
A|------------------|----------------------|------------------|---------------|-
E|------------------|----------------------|------------------|---------------|-



E|------------------------------------------|-------------------------------------------------|-
B|------------------------------------------|-------------------------------------0-----------|-
G|---0---------------4-2-0---0--2-0---------|----------------0-0--------4-2-0---0---0---------|-
D|-0----6-4-6--4-2-4-------6--------6-4-4-2-|-0-1-2-3-4-5-6-------6-4-6-------6-------6-2-2-4-|-
A|------------------------------------------|-------------------------------------------------|-
E|------------------------------------------|-------------------------------------------------|-



E|---------------------------|---------------------|-------------------------------|-
B|-------------0-0-----------|---------------------|-------------------------------|-
G|-------4-2-4-----6-4-2-4-2-|-----0-2-0-----------|-0-----------------------------|-
D|-2-3-4---------------------|-4-6-------6-4-2-4-2-|---6-4-2-4--4-2-4--4-2-4--2--4-|-
A|---------------------------|---------------------|-------------------------------|-
E|---------------------------|---------------------|-------------------------------|-



E|------------------------------|-
B|------------------------------|-
G|-0---------------------0------|-
D|---6-4-2-4--4-2-4--4-2---6-2--|-
A|------------------------------|-
E|------------------------------|-



E|-----------------|---------------------|-----------------|-------------|-
B|-------0-0-------|---------------------|-------2-0-------|-------------|-
G|---4-2-----4-2-4-|-0-2-2-4-0-0---------|---4-2-----4-2-4-|-0-2-4-------|-
D|-4---------------|-------------6-4-6-2-|-4---------------|-------6-2-4-|-
A|-----------------|---------------------|-----------------|-------------|-
E|-----------------|---------------------|-----------------|-------------|-



E|-
B|-
G|-
D|-
A|-
E|-
http://www.guitartabcreator.com
Guitar Tab Creator is intended to store guitar tab created through the tool. It currently does not support in-line text editing. Any text you place in here will be lost. If you need to comment on your tab, please use the "Tab Notes" section located below.