Can You See Jane? v1

(/) Slide Up  (\) Slide Down  (h) Hammer On  (p) Pull Off  (b) Bend (r) Release (v) Vibrato


E|-8-4-3-1-6-|-8-4-3--1-----|--------------|-------------------|--------1----|-
B|-----------|----------4-2-|--------------|-----------4--2--1-|---4---------|-
G|-----------|--------------|-----0-1----3-|----0-1------------|-------------|-
D|-----------|--------------|--3-------3---|-3-------3---------|-------------|-
A|-----------|--------------|--------------|-------------------|-------------|-
E|-----------|--------------|--1-----------|-------------------|-------------|-



E|-3----4------|------4-1--|-3---4-----|-----6-6---8-|-8--6-6--4-4--3-|-3---4-1---------|-
B|----4---4--3-|-4--4------|---4---4-3-|-4-4---------|----------------|---4-------4-3-4-|-
G|-------------|-----------|-----------|-------------|----------------|-----------------|-
D|-------------|-----------|-----------|-------------|----------------|-----------------|-
A|-------------|-----------|-----------|-------------|----------------|-----------------|-
E|-------------|-----------|-----------|-------------|----------------|-----------------|-



E|--3--1--3--6-|--3--1-----1-|-8--6-|-8-6-|-8-6-|-4-|-6-|-8--10-|-11-13-|-15-|-
B|-------------|--------4----|------|-----|-----|---|---|-------|-------|----|-
G|-------------|-------------|------|-----|-----|---|---|-------|-------|----|-
D|-------------|-------------|------|-----|-----|---|---|-------|-------|----|-
A|-------------|-------------|------|-----|-----|---|---|-------|-------|----|-
E|-------------|-------------|------|-----|-----|---|---|-------|-------|----|-
http://www.guitartabcreator.com
Guitar Tab Creator is intended to store guitar tab created through the tool. It currently does not support in-line text editing. Any text you place in here will be lost. If you need to comment on your tab, please use the "Tab Notes" section located below.