Can I Come With You

(/) Slide Up  (\) Slide Down  (h) Hammer On  (p) Pull Off  (b) Bend (r) Release (v) Vibrato


E|-------------|-----------|-5-------|-
B|-15-13-15-13-|-11-10-8-6-|-5-5-6-8-|-
G|-------------|-----------|-5-------|-
D|-------------|-----------|---------|-
A|-------------|-----------|---------|-
E|-------------|-----------|---------|-



E|-10----8---6---5---|----------------|-
B|-------------------|-8---6---5---3--|-
G|---------7---7---7-|---7---7---7----|-
D|----12-------------|----------------|-
A|-------------------|----------------|-
E|-------------------|----------------|-



E|-5-----|----8--5-|-8--5-|-5-8-10-------|-8--5-8-|-10-6-10-|-12-8-12-|-13-|-
B|-3-3-6-|-10----6-|-10-6-|-6---11--8-11-|-10-6---|-11-8-11-|-10------|-11-|-
G|-2-----|---------|------|--------------|--------|---------|---------|----|-
D|-0-----|---------|------|--------------|--------|---------|---------|----|-
A|-------|---------|------|--------------|--------|---------|---------|----|-
E|-------|---------|------|--------------|--------|---------|---------|----|-



E|-8---6---5---3---|---------------|-10-8-6-5-----------|---
B|-----------------|-6---5---3---1-|----------8-6-5-3-1-|---
G|---5---5---5---5-|---5---5---5---|--------------------|---
D|-----------------|---------------|--------------------|---
A|-----------------|---------------|--------------------|---
E|-----------------|---------------|--------------------|---



E|-8-6-5-3-|-10-8-6-5-|-12-10-8-6-|-13-12-10--|-
B|---------|----------|-----------|-----------|-
G|---------|----------|-----------|-----------|-
D|---------|----------|-----------|-----------|-
A|---------|----------|-----------|-----------|-
E|---------|----------|-----------|-----------|-



E|-----------------|-----------------|-----------------|-----------------|-5-
B|-----1-----1-----|-----1-----1-----|-----1-----1-----|-----1-----1-----|---
G|---2-----2-----2-|---2-----2-----2-|---2-----2-----2-|---2-----2-----2-|-2-
D|-3-----3-----3---|-3-----3-----3---|-3-----3-----3---|-3-----3-----3---|---
A|-----------------|-----------------|-----------------|-----------------|---
E|-----------------|-----------------|-----------------|-----------------|---



E|---1---1---1---1-|---1---1---1---1-|---
B|-3---3---3---3---|-1---1---0---0---|-3-
G|-----------------|-----------------|---
D|-----------------|-----------------|---
A|-----------------|-----------------|---
E|-----------------|-----------------|---
http://www.guitartabcreator.com
Guitar Tab Creator is intended to store guitar tab created through the tool. It currently does not support in-line text editing. Any text you place in here will be lost. If you need to comment on your tab, please use the "Tab Notes" section located below.