BBC Sherlock Theme

(/) Slide Up  (\) Slide Down  (h) Hammer On  (p) Pull Off  (b) Bend (r) Release (v) Vibrato
E|-----------------------|----0-------------------|-
B|----0-----0----0-1---0-|----1-----------1-----1-|-
G|----0-----0--3---------|----------------2-----2-|-
D|-----------------------|-------2-----------2----|-
A|-------2-----------2---|-0-----------0----------|-
E|-0-----------0---------|------------------------|-



E|----0-----0----0-2---0-|-3-----------------------|-
B|----1-----1--4-------1-|----0-----0-----0------0-|-
G|-----------------------|----0-----0-----0------0-|-
D|-----------------2-----|-2-----------------------|-
A|-0-----------0---------|-------2-----------2-----|-
E|-------0-----------0---|-0-----------0-----------|-



E|--5/7--0-----0--2--3--2h3--0--|--3/5--0-----
B|------------------------------|-------------
G|------------------------------|-------------
D|------------------------------|----------2--
A|----------2-----------2-------|--0----------
E|--0-------------0-------------|-------------
http://www.guitartabcreator.com

Hi, can you please write

Hi, can you please write other part of this song, please )

Guitar Tab Creator is intended to store guitar tab created through the tool. It currently does not support in-line text editing. Any text you place in here will be lost. If you need to comment on your tab, please use the "Tab Notes" section located below.