The Avengers Theme

(/) Slide Up  (\) Slide Down  (h) Hammer On  (p) Pull Off  (b) Bend (r) Release (v) Vibrato
E|-----------------------------------------------------------------------------------------|-
B|-----------------------------------------------------------------------------------------|-
G|-----------------------------------------------------------------------------------------|-
D|-0-0-0---0-0-0---0-0-0-0-1-1-1---1-1-2---2-2-2-2-3-3-3---3-3-2---2-2-2-2-1-1-1--1-1------|-
A|------------------------------------------------------------------------------------1--3-|-
E|-----------------------------------------------------------------------------------------|-



E|-----------------------------------------------------------------------------------|-
B|-3-3-3--3-3-3--3-3-3-3-4-4-4--4-4-5--5-5-5-5-6-6-6--6-6-5--5-5-5-5-4-4-4--4-4----1-|-
G|------------------------------------------------------------------------------3----|-
D|-----------------------------------------------------------------------------------|-
A|-----------------------------------------------------------------------------------|-
E|-----------------------------------------------------------------------------------|-



E|-------------------------------------------------------------------------------|-
B|-------------------------------------------------------------------------------|-
G|-------------------------------------------------------------------------------|-
D|------0-----------------------0------------------0-----------------0-----------|-
A|---------3--3-1--3--3/5----------3--3-1--0---------3-3-1-3-3/5-------3-3-1-0---|-
E|-3-----------------------3------------------3------------------3-------------3-|-



E|-----------------------------------------------------------------|-
B|-----------------------------------------1------------3----------|-
G|--------------0--------------0--1--0-----------------------------|-
D|-0-------------------0-----------------------3----------------4--|-
A|---3-3-1-0---------3---1---------------3--------3/5-------2-2----|-
E|------------3------------3---------------------------------------|-



E|-----------------|-0-0--7-5--|-------------0--0-2--|-
B|-----------0-----|-----------|-----------3---------|-
G|-------------2---|-----------|----0-2-4------------|-
D|-2----2-2--------|-----------|-2-------------------|-
A|-----------------|-----------|---------------------|-
E|-----------------|-----------|---------------------|-



E|-0---0-0--7-5---3-2-|-0---0-0--7-9--5-7--|-0--0-0--7-5--3-2--|---0-0-2----0-0-2-|-0-|-
B|--------------------|--------------------|-------------------|-3--------3-------|---|-
G|--------------------|--------------------|-------------------|------------------|---|-
D|--------------------|--------------------|-------------------|------------------|---|-
A|--------------------|--------------------|-------------------|------------------|---|-
E|--------------------|--------------------|-------------------|------------------|---|-
http://www.guitartabcreator.com
Guitar Tab Creator is intended to store guitar tab created through the tool. It currently does not support in-line text editing. Any text you place in here will be lost. If you need to comment on your tab, please use the "Tab Notes" section located below.