Aqua

(/) Slide Up  (\) Slide Down  (h) Hammer On  (p) Pull Off  (b) Bend (r) Release (v) Vibrato


E|-12-------------------|-13-------------------|-12-------------------|-13-------------------|-
B|----10---10-8-10---10-|----10---10-8-10---10-|----10---10-8-10---10-|----10---10-8-10---10-|-
G|-------9---------9----|-------9---------9----|-------7---------7----|-------7---------7----|-
D|----------------------|----------------------|----------------------|----------------------|-
A|----------------------|----------------------|----------------------|----------------------|-
E|----------------------|----------------------|----------------------|----------------------|-



E|-------------|-----------------|-------------------|------------------|---
B|-------------|-----------------|-------------------|-13---------------|---
G|-14--12-10-9-|-7-9----10-12-14-|-14-14---------12--|----10-9-10-12-14-|---
D|-------------|-----------------|---------14-15-----|---------12-14-15-|---
A|-------------|-----------------|-------------------|------------------|---
E|-------------|-----------------|-------------------|------------------|---



E|------------------------|-
B|---------13-------------|-
G|-14--12------10--9--10--|-
D|------------------------|-
A|------------------------|-
E|------------------------|-
http://www.guitartabcreator.com
Guitar Tab Creator is intended to store guitar tab created through the tool. It currently does not support in-line text editing. Any text you place in here will be lost. If you need to comment on your tab, please use the "Tab Notes" section located below.