Amy in the TARDIS

(/) Slide Up  (\) Slide Down  (h) Hammer On  (p) Pull Off  (b) Bend (r) Release (v) Vibrato
E|------10---10------10---10-|-5-3-5---5-5-3-5---5-|------12---12------12---12-|-
B|-10-8---------10-8---------|-----6-5-3-----6-5-3-|-10-8---------10-8---------|-
G|------10-9---------10-9----|---------------------|------10-9---------10-9----|-
D|-----------12-----------12-|---------------------|-----------12-----------12-|-
A|---------------------------|---------------------|---------------------------|-
E|---------------------------|---------------------|---------------------------|-



E|------10---10------10-----|-
B|-10-8---------10-8--------|-
G|------10-9---------10-9-7-|-
D|-----------12------0----0-|-
A|--------------------------|-
E|--------------------------|-



E|-
B|-
G|-
D|-
A|-
E|-
http://www.guitartabcreator.com
Guitar Tab Creator is intended to store guitar tab created through the tool. It currently does not support in-line text editing. Any text you place in here will be lost. If you need to comment on your tab, please use the "Tab Notes" section located below.