Amy & Rory

(/) Slide Up  (\) Slide Down  (h) Hammer On  (p) Pull Off  (b) Bend (r) Release (v) Vibrato


E|---2-5---2-|-5---10-9----5-|-----2-7--5-|-2---10-9---|-
B|-----------|---------------|------------|------------|-
G|-----------|---------------|------------|------------|-
D|-0---------|-0-------------|-0----------|-0----------|-
A|-----4-----|---------------|-------4----|------------|-
E|-----------|--------9------|------------|--------9---|-



E|---|------------0---------|--------------|-------------5-7-5-7-5-7-5-7-5-7-5----
B|---|----0---2-----3---2-3-|--------------|--------------------------------------
G|---|----------------------|-2------2-----|---------2----------------------------
D|---|----------------------|-----4--------|-0---4--------------------------------
A|---|----------------------|-0------4---0-|--------------------------------------
E|-5-|-3--------------------|--------------|--------------------------------------
http://www.guitartabcreator.com
Guitar Tab Creator is intended to store guitar tab created through the tool. It currently does not support in-line text editing. Any text you place in here will be lost. If you need to comment on your tab, please use the "Tab Notes" section located below.