Amy

(/) Slide Up  (\) Slide Down  (h) Hammer On  (p) Pull Off  (b) Bend (r) Release (v) Vibrato

E|--5--1--0-----|--5--1--0-----------|--5--1--0-----|--5--1--0-----|--
B|-----------1--|-----------1--0--1--|-----------1--|-----------1--|--
G|--------------|--------------------|--------------|--------------|--
D|--------------|--------------------|--------------|--------------|--
A|--------------|--------------------|--------------|--------------|--
E|--------------|--------------------|--------------|--------------|--



E|-6--6--|-6--6-6-|--------------|--------------|-6-6-|-6--6-6-|-------------|-------------|---
B|-------|--------|-----1---3----|-----1---3----|-----|--------|-----1---3---|-----1---3---|---
G|-------|--------|---2---2----2-|---2---2----2-|-----|--------|---2---2---2-|---2---2---2-|---
D|-------|--------|-3------------|-3------------|-----|--------|-3-----------|-3-----------|---
A|-------|--------|--------------|--------------|-----|--------|-------------|-------------|---
E|-------|--------|--------------|--------------|-----|--------|-------------|-------------|---



E|-------------|-------------|-------------|-------------|----------3--2-------------|-----
B|----3--5--6--|----3--5--6--|----3--5--6--|----3--5--6--|----3--5----------3--5--1--|-----
G|-------------|-------------|-------------|-------------|---------------------------|--3--
D|-------------|-------------|-------------|-------------|---------------------------|-----
A|-------------|-------------|-------------|-------------|---------------------------|-----
E|-------------|-------------|-------------|-------------|---------------------------|-----
http://www.guitartabcreator.com
Guitar Tab Creator is intended to store guitar tab created through the tool. It currently does not support in-line text editing. Any text you place in here will be lost. If you need to comment on your tab, please use the "Tab Notes" section located below.