1stex

(/) Slide Up  (\) Slide Down  (h) Hammer On  (p) Pull Off  (b) Bend (r) Release (v) Vibrato
E|-7-6-2---4-2-------|-----------------|-
B|-------4-----4-2-0-|-0-0-0-0-2-2/7-0-|-
G|-------------------|-----------------|-
D|-------------------|-----------------|-
A|-------------------|-----------------|-
E|-------------------|-----------------|-



E|-0-2-2-|-------------2-------|-|-|-0---2-|-
B|-0-2-4-|-0-0-2-2-2-4---5-4-2-|-|-|-2-0-2-|-
G|-1-3-4-|---------------------|-|-|-2-1-3-|-
D|-2-4-4-|---------------------|-|-|-2-2-4-|-
A|-2-4-2-|---------------------|-|-|-0-2-4-|-
E|-0-2-2-|---------------------|-|-|---0-2-|-
http://www.guitartabcreator.com
Guitar Tab Creator is intended to store guitar tab created through the tool. It currently does not support in-line text editing. Any text you place in here will be lost. If you need to comment on your tab, please use the "Tab Notes" section located below.