100bpm

(/) Slide Up  (\) Slide Down  (h) Hammer On  (p) Pull Off  (b) Bend (r) Release (v) Vibrato


E|--------------------------|-----|-----|-----|--|--
B|--------------------------|-----|-----|-----|--|--
G|--------------------------|-----|-----|-----|--|--
D|--2--2--2--2--2--2--2--2--|--1--|--0--|-----|--|--
A|--------------------------|-----|-----|--4--|--|--
E|--0--0--0--0--0--0--0--0--|--2--|--3--|--5--|--|--



E|-----------|----------------|-----------------|----------------|-
B|---0-0-0-0-|-0------0-------|-----0-0-0-0-0-0-|-0------0-------|-
G|-----------|---2--0---2-0-2-|-----------------|---2--0---2-0-2-|-
D|-2---------|----------------|-2-2-------------|----------------|-
A|-----------|----------------|-----------------|----------------|-
E|-----------|----------------|-----------------|----------------|-



E|-----0-0-0-0-0-0-|-----------------|-----------------|-----------------0-|-
B|-----------------|-4-4-4-4-4-4-4-4-|-3-3-3-3-3-3-3-3-|-2-2-2-2-3-0-3-0---|-
G|-0-0-------------|-----------------|-----------------|-------------------|-
D|-----------------|-----------------|-----------------|-------------------|-
A|-----------------|-----------------|-----------------|-------------------|-
E|-----------------|-----------------|-----------------|-------------------|-



E|----0--0-0-0-0-|------------------|--------------|----------------|---
B|---------------|-4--0-0-0-0-------|----0-0-0-0-0-|-0------0-------|---
G|---------------|------------2-0-2-|-0------------|---2--0---2-0-2-|---
D|-2-------------|------------------|--------------|----------------|-2-
A|---------------|------------------|--------------|----------------|---
E|---------------|------------------|--------------|----------------|---
http://www.guitartabcreator.com
Guitar Tab Creator is intended to store guitar tab created through the tool. It currently does not support in-line text editing. Any text you place in here will be lost. If you need to comment on your tab, please use the "Tab Notes" section located below.