New Peace

(/) Slide Up  (\) Slide Down  (h) Hammer On  (p) Pull Off  (b) Bend (r) Release (v) Vibrato
E|-----------0---------------------0---------------------------------------------
B|--------1-----0h1-------------1-----0h1---------------------1--0h1p0--0--------
G|-----2-------------0h2-----2-------------0h2--0----------0---------------2--0--
D|--2---------------------2-----------------------------2------------------------
A|---------------------------------------------------3---------------------------
E|-------------------------------------------------------------------------------



E|--------------------------------------------------------
B|---------------------------------------1--0--1h0--------
G|--------0---------------------------0-------------2--0--
D|-----2-----2/4--2----------------2----------------------
A|--2----------------3--2--0----3-------------------------
E|--------------------------------------------------------



E|---------------------------------------------------------
B|---------------------------------------------------------
G|-----------0----------0-------------2--0h2p0--------0h2--
D|--------0----------0-------------0------------0--2-------
A|-----2----------2-------------0--------------------------
E|--3------------------------2-----------------------------



E|-----------
B|-----------
G|-----------
D|-----------
A|-----------
E|-----------
http://www.guitartabcreator.com
Guitar Tab Creator is intended to store guitar tab created through the tool. It currently does not support in-line text editing. Any text you place in here will be lost. If you need to comment on your tab, please use the "Tab Notes" section located below.