Love of my life

(/) Slide Up  (\) Slide Down  (h) Hammer On  (p) Pull Off  (b) Bend (r) Release (v) Vibrato
E|-------2-------------2-------0---3--------------------------------2-------------2---------
B|-3-2-3-------3-3-2-3---3-----0-------3---2---2---3---5---2--3-2-3-------3-3-2-3---3-------
G|-2---------2---4---------4---0-----0---0---0-2---0---0---0--2---------2---4---------4-----
D|---------0-----4-----------4---2-------------2---4---5---2--0-------0-----4-----------4---
A|---------------2-----------------------------0-0---0---0----------------------------------
E|-0---------------------------0----------------------------------------------------------0-



E|-7----------5--------0-------------
B|-5---5----------5----0---0---0---0-
G|-7-7---7------7---7--1---2---4---7-
D|-5-------4---------------4---6---9-
A|-----------------------------------
E|---------------------0-0---0---0---



E|-------0-------------2---------2---0-------------------0----------2-------------3-2-----
B|-------------2---------2-3-2-3---3-0---0---0---0--2-0--0--2-----3---3--2--------3-3-3---
G|-2-1-2-----2-------------4---------1---2---4---7--2-2--2--0---2-----4--2------0---2---2-
D|-2-------2---------4-----4-------------4---6---9--2----5--2-0-------4--4----0-----0-----
A|-0---------------4-------2------------------------0-------0---------2-------------------
E|---------------2-------------------0-0---0---0-------------------------2--3-------------



E|----2------------------------2---7---5---3---2--7--------5-------0-------------------2---
B|-3--3--3--0-------2--------3-----8---7---5---3--5---5--------5---0-------------------3---
G|-0--2--4--0-----0---0----2-------------------2--7-7---7----7---7-1---2---4---7-----2-----
D|-0--0--4--2---2--------0-------0---0---0---0-0--5--------4-------------4---6---9-0-------
A|-------2----0----------------------------------------------------------------------------
E|-3--------0------------------------------------------------------0-0---0---0-------------



E|---7---5---3---2--7-------5-------0---------------------2-----------2---------------------3-
B|---8---7---5---3--5---5-------5---0-------------------3---3-------3----------2----------3---
G|---------------2--7-7---7---7---7-1---2---4---7-----2-----------4-4----------2-2------0-0---
D|-0---0---0---0-0--5-------4-------------4---6---9-0-----------4------------4--------0-------
A|------------------------------------------------------------2------------4------------------
E|----------------------------------0-0---0---0--------------------------2----------3---------



E|-2---3---5---2---------2---------2-2-2----------0-----------------------5---5-----
B|-3---5---7---2-------3---------2-1-1-1--------0----2---3---5---10-----7-------7---
G|-2-----------3-----4-4---------2-2-2-2--------0----2---0---0---0----7-----6-----6-
D|-0-0---0---0-4---4-----------4---1-1-1------2------2---4---5---11-0---------------
A|-------------4-2-----------4--------------2--------0-0---0---0--------------------
E|-------------2-----------2--------------0-----------------------------------------



E|-----------------------0----6---5-2-
B|-------3--------2------0----3---3-3-
G|-----4----------2------0----3-3-3-2-
D|---4----------4------2---2--5-----0-
A|-2----------4-----------------------
E|----------2--------0----------------
http://www.guitartabcreator.com
Guitar Tab Creator is intended to store guitar tab created through the tool. It currently does not support in-line text editing. Any text you place in here will be lost. If you need to comment on your tab, please use the "Tab Notes" section located below.