Nice


E|---------3p0---------7p5---|---------3p0---------7p5---
B|-------------3p0-3/5-----8-|-------------3p0-3/5-----8-
G|-4-4-4-4-------------------|-4-4-4-4-------------------
D|-2-2-2-2-------------------|-2-2-2-2-------------------
A|-3-3-3-3-------------------|-3-3-3-3-------------------
E|---------------------------|---------------------------



E|---------0h5h7p5h8p5h7p5---------|---------0h5h7p5h8p5h7p5-------
B|-------------------------8p7p5p0-|-------------------------8p7p5-
G|-7-7-7-7-------------------------|-7-7-7-7-----------------------
D|-5-5-5-5-------------------------|-5-5-5-5-----------------------
A|-7-7-7-7-------------------------|-7-7-7-7-----------------------
E|---------------------------------|-------------------------------
Guitar Tab Creator is intended to store guitar tab created through the tool. It currently does not support in-line text editing. Any text you place in here will be lost. If you need to comment on your tab, please use the "Tab Notes" section located below.