Coming Down by Dum Dum Girls

(/) Slide Up  (\) Slide Down  (h) Hammer On  (p) Pull Off  (b) Bend (r) Release (v) Vibrato
Standard tuning

Main chords D - A - Em
Bm - G - A

Listen to the song to get the rhythm

E|--2--2--2--2--------------------------------------
B|--3--3--3--3--2--2--2--2--------------------------
G|--2--2--2--2--2--2--2--2--------------------------
D|--------------2--2--2--2--2--2--2--2--2--2--2--2--
A|--------------------------2--2--2--2--2--2--2--2--
E|--------------------------------------------------



E|--2--------2--------2--------2--------0--------0--------0--------0--------
B|-----3--------3--------3--------3--------2--------2--------2--------2-----
G|--------2--------2--------2--------2--------2--------2--------2--------2--
D|--------------------------------------------------------------------------
A|--------------------------------------------------------------------------
E|--------------------------------------------------------------------------



E|--0--------0--------0--------0--------0--------0--------0--------0--------
B|-----0--------0--------0--------0--------0--------0--------0--------0-----
G|--------0--------0--------0--------0--------0--------0--------0--------0--
D|--------------------------------------------------------------------------
A|--------------------------------------------------------------------------
E|--------------------------------------------------------------------------



E|--2--2--2--2--3--3--------
B|--3--3--3--3--3--3--2--2--
G|--4--4--4--4--4--4--2--2--
D|--4--4--4--4--5--5--2--2--
A|--2--2--2--2--5--5--------
E|--------------3--3--------



E|--2--2--2--2--------------------------------------
B|--3--3--3--3--2--2--2--2--------------------------
G|--2--2--2--2--2--2--2--2--------------------------
D|--------------2--2--2--2--2--2--2--2--2--2--2--2--
A|--------------------------2--2--2--2--2--2--2--2--
E|--------------------------------------------------
http://www.guitartabcreator.com
Guitar Tab Creator is intended to store guitar tab created through the tool. It currently does not support in-line text editing. Any text you place in here will be lost. If you need to comment on your tab, please use the "Tab Notes" section located below.