tired

(/) Slide Up  (\) Slide Down  (h) Hammer On  (p) Pull Off  (b) Bend (r) Release (v) Vibrato
E|--------------
B|--5--5--5--5--
G|--6--6--6--6--
D|--7--6--4--7--
A|--0--0--5--0--
E|--------------



E|--------7--
B|--3--5--6--
G|--4--6--6--
D|--4--7--6--
A|--0--0-----
E|-----------
http://www.guitartabcreator.com
Guitar Tab Creator is intended to store guitar tab created through the tool. It currently does not support in-line text editing. Any text you place in here will be lost. If you need to comment on your tab, please use the "Tab Notes" section located below.