Legionnaire Metal

(/) Slide Up  (\) Slide Down  (h) Hammer On  (p) Pull Off  (b) Bend (r) Release (v) Vibrato
E|------------------------------------------------------------------------------------------
B|------------------------------------------------------------------------------------------
G|----------12----------13----------12----------10----------8----------10----------------7--
D|--10--10------10--10------10--10------10--10------10--10-----10--10------10--10--8p10-----
A|------------------------------------------------------------------------------------------
E|------------------------------------------------------------------------------------------



E|-----------------------------------------------------------------------
B|-----------------------------------------------------------------------
G|--------5--------7--------8--------7--------5--------7--------8--------
D|--6--6-----6--6-----6--6-----6--6-----6--6-----6--6-----6--6-----6--6--
A|-----------------------------------------------------------------------
E|-----------------------------------------------------------------------



E|-------------------------------------------------------------------------
B|-------------------------------------------------------------------------
G|--------8p7-----10p7-----8p7-----10--8--7--8--7------7-------------------
D|--8--8-------8--------8-------8------------------10-----10--8--10--8--7--
A|-------------------------------------------------------------------------
E|-------------------------------------------------------------------------



E|--------------------------------------------------------------------------------
B|--------------------------------------------------------------------------------
G|--------------------------------------------------------------------------------
D|--5--------6--5-----5--6--8--5--------------------------5--6--5-----5--6--8-----
A|--3--3--3--------6-----------3--3--3--6--5-----5--6--8--3--------6--------------
E|--------------------------------------------6-----------------------------------



E|-----------------------------
B|-----------------------------
G|-----------------------------
D|-----------------------------
A|-----------6--5-----5--6--8--
E|--4--4--4--------6-----------



E|---------------------------
B|---------------------------
G|---------------------------
D|---------------------------
A|--------------6--5h6p5-----
E|--4--4--4--6------------6--



E|-----------------------------------------------------------------------------------------------
B|-----------------------------------------------------------------------------------------------
G|-----------------------------------------------------------------------------------------------
D|-----------------------------------------------------------------------------------------------
A|--3--3--3--3--3--3--3--3--3--3--6--5--------------------------------------------------6--5-----
E|--------------------------------------6--4--4--4--4--4--4--4--4--6--6--6--6--6--6--6--------6--



E|---------------------------------------------------------------------------------
B|---------------------------------------------------------------------------------
G|----------8----------7----------------7----------8----------12--10--8--10--8--7--
D|--10--10-----10--10-----10--10--8h10-----10--10-----10--10-----------------------
A|---------------------------------------------------------------------------------
E|---------------------------------------------------------------------------------



E|------------------------------------------------------------------------------
B|------------------------------------------------------------------------------
G|----------8----------7----------------7--8--8--8--8--7--8--10--8--7--8--7-----
D|--10--10-----10--10-----10--10--8h10---------------------------------------8--
A|------------------------------------------------------------------------------
E|------------------------------------------------------------------------------



E|-----------------------------------------------------------------------------------------
B|-----------------------------------------------------------------------------------------
G|-----------------------------------------------------------------------------------------
D|-----------------------------------------------------------------------------------------
A|-----------------------------------------------------------------------------------------
E|--8--8--8--8--8--8--8--8--4--4--4--4--4--4--4--6--6--6--6--6--6--6--6--11--10--8--10--6--



E|-----------------------------------|-----------------------------------
B|-----------------------------------|-----------------------------------
G|-----------------------------------|-----------------------------------
D|-----------------------------------|-----------------------------------
A|--3--3--3--3--3--6--5--6--8--6--5--|--3--3--3--3--3--6--5-----5--6--8--
E|-----------------------------------|-----------------------6-----------



E|-----------------------------------|---------------------------------------
B|-----------------------------------|---------------------------------------
G|-----------------------------------|---------------------------------------
D|-----------------------------------|---------------------------------------
A|--3--3--3--3--3--6--5--6--8--6--5--|--10--8--6--8--6--5--6--5-----5--------
E|-----------------------------------|---------------------------8-----8--6--



E|-----------------------------------|-----------------------------------
B|-----------------------------------|-----------------------------------
G|-----------------------------------|-----------------------------------
D|--3--3--3--3--3--6--5--6--8--6--5--|--3--3--3--3--3--6--5-----5--6--8--
A|-----------------------------------|-----------------------6-----------
E|-----------------------------------|-----------------------------------



E|-----------------------------------|---------------------------------------
B|-----------------------------------|---------------------------------------
G|-----------------------------------|---------------------------------------
D|--3--3--3--3--3--6--5--6--8--6--5--|--10--8--6--8--6--5--6--5-----5--------
A|-----------------------------------|---------------------------8-----8--6--
E|-----------------------------------|---------------------------------------



E|--------------------------------------------------------------------------------------------
B|--------------------------------------------------------------------------------------------
G|--------------------------------------------------------------------------------------------
D|-----------------------------------------------3--3--3--3--3--3--3--3-----------------------
A|--3--3--3--3--3--3--3--3--6--6--6--6--6--6--6--------------------------1--1--1--1--1--1--1--
E|--------------------------------------------------------------------------------------------
http://www.guitartabcreator.com
Guitar Tab Creator is intended to store guitar tab created through the tool. It currently does not support in-line text editing. Any text you place in here will be lost. If you need to comment on your tab, please use the "Tab Notes" section located below.