This Is My Father's World

(/) Slide Up  (\) Slide Down  (h) Hammer On  (p) Pull Off  (b) Bend (r) Release (v) Vibrato


E|--------------------------------------------------------------------------
B|--------------------3--------2--------------------------3--------2--------
G|--3--------2-----------0--------0-----3--------2-----------0--------0-----
D|-----0--------0-----------0--------0-----0--------0-----------0--------0--
A|--------1--------1--------------------------1--------1--------------------
E|--------------------------------------------------------------------------



E|-----------------------------------------------------------------3--------------
B|--------------------3--------2--------------------------3-----------------------
G|--3--------2-----------0--------0-----3--------2-----------0--------0-----0-----
D|-----0--------0--------------------------0--------0-----------------------------
A|-----------------------------------------------------------------------1-----0--
E|--------3--------3--------3--------3--------3--------3--------3-----------------



E|------------------3-----------------------------
B|--0h2h3----------------------3------------------
G|---------2-----2-----0----------2h3-----3--0h2--
D|------------0-----------0------------0-----0----
A|------------1-----------0h1---------------------
E|------------------------------------------------
http://www.guitartabcreator.com
Guitar Tab Creator is intended to store guitar tab created through the tool. It currently does not support in-line text editing. Any text you place in here will be lost. If you need to comment on your tab, please use the "Tab Notes" section located below.