my first tab!

(/) Slide Up  (\) Slide Down  (h) Hammer On  (p) Pull Off  (b) Bend (r) Release (v) Vibrato

E|--------------------------------------------------------------------
B|--------------------------------------------------------------------
G|--------------------------------------------------------------------
D|--------------------------------------------------------------------
A|--------------------------------------------------------------------
E|--0--1--4--5--0--1--4--5--0--1--5--4--0--1--5--4--1--4--1--4--1--0--



E|-----------------------------------------------------4--1--4--1--4--1--0--
B|--------------------------------------------------------------------------
G|--------------------------------------------1--2--4-----------------------
D|--------------------------------3--1--2--2--------------------------------
A|--------------------------2--2--------------------------------------------
E|--0--1--4--5--0--1--4--5--------------------------------------------------



E|-----------------------------------------------------
B|-----------------------------------------------------
G|-----------------------------------------------------
D|-----------------------------------------------------
A|-----------------------------------------------------
E|--0--4--0--1--0--4--0--1--0--4--0--1--4--1--4--1--0--



E|--
B|--
G|--
D|--
A|--
E|--
http://www.guitartabcreator.com
Guitar Tab Creator is intended to store guitar tab created through the tool. It currently does not support in-line text editing. Any text you place in here will be lost. If you need to comment on your tab, please use the "Tab Notes" section located below.