Bluebell Woods bass

(/) Slide Up  (\) Slide Down  (h) Hammer On  (p) Pull Off  (b) Bend (r) Release (v) Vibrato


E|-------------------------------------------------------------------------------------------------
B|-------------------------------------------------------------------------------------------------
G|--------------------------------------8--10-----------8--10--------------------------------------
D|--------6--8-----------6--8--------8---------8-----8---------8--------6--8-----------6--8--------
A|-----6--------6-----6--------6--6---------------6------------------6--------6-----6--------6-----
E|--4--------------4----------------------------------------------4--------------4-----------------



E|---------------------------------------------------------------------------------------
B|---------------------------------------------------------------------------------------
G|--------8--10-----------8--10----------------------------------------------------------
D|-----8---------8-----8---------8---------10--12-------------10--12------------6--8-----
A|--6---------------6------------------10----------10-----10----------10-----6--------6--
E|----------------------------------8------------------8------------------4--------------



E|---------------------------------------------------------------------------------------
B|---------------------------------------------------------------------------------------
G|------------------------10--12-------------10--12--------------------------------------
D|--------6-----5-----10----------10-----10----------10--------8--10-----------8--10-----
A|-----6-----------8------------------8---------------------8---------8-----8---------8--
E|--4--------3-------------------------------------------6---------------6---------------



E|-------------------------------------------------------------------------------------------
B|-------------------------------------------------------------------------------------------
G|-------------------------------------------------------------------------------------7-----
D|--------8--10-----------8--6--6-------------8-------------------------------------------8--
A|-----8---------8-----8-------------------6-----6--6--6--6--6--6--6--6--6--6--6----6--------
E|--6---------------6------------------------------------------------------------------------



E|----------------------------------------------------------------------------------------
B|----------------------------------------------------------------------------------------
G|----------------------------------------------------------------------------------------
D|----------------------------------------------3-----3--5-----5--6-----6--8--8--8--8--8--
A|--3--3--3--3--3--3--3--3--3--3-------------------3--------5--------6--------------------
E|----------------------------------------------------------------------------------------



E|----------------------------------------------------------------------------------
B|----------------------------------------------------------------------------------
G|----------------------------------------------------------------------------7-----
D|--8--8--8--8--8----------------------8-----------------------------------------8--
A|----------------------------------6-----6--6--6--6--6--6--6--6--6--6--6--6--------
E|-----------------6--6--6--6--6----------------------------------------------------



E|--------------------------------------------------------------------------------------
B|--------------------------------------------------------------------------------------
G|--------------------------------------------------------------------------------------
D|--------------------------------3-----3--5-----5--6-----6--5-----5--3-----3--5-----5--
A|--3--3--3--3--3--3--3--3--3--3-----3--------5--------6--------5--------3--------5-----
E|--------------------------------------------------------------------------------------



E|------------------------------------
B|------------------------------------
G|------------------------------------
D|--6--------8----------5-------------
A|---------------------------------3--
E|------------------------------------
http://www.guitartabcreator.com
Guitar Tab Creator is intended to store guitar tab created through the tool. It currently does not support in-line text editing. Any text you place in here will be lost. If you need to comment on your tab, please use the "Tab Notes" section located below.