Forever Night Final

(/) Slide Up  (\) Slide Down  (h) Hammer On  (p) Pull Off  (b) Bend (r) Release (v) Vibrato
E|-----------0---------------------------------------------------------------------
B|--------1-------1---------------1-----------------1--------------1---------------
G|-----2-----------------------2-------2---------2--------------------2------------
D|--2-----------------------2--------------------------2-----------------2---------
A|-----------------------0--------------------0-------------0-------------------0--
E|---------------------------------------------------------------------------------



E|--------------------------------0-----------------0------------------------------
B|-----------------------------1-------1---------1-----------------1---------------
G|-----------1--------------2--------------------------2--------------2------------
D|--------2-------2------2--------------------2--------------------------2---------
A|-----2----------------------------------------------------2----------------------
E|--0---------------------------------------------------------------------------0--



E|------0--------0--------0--------0--0------0--0--0--------0--------0--------0----
B|------1--------1--------1--------1--1------1--1--1--------1--------1--------1----
G|------2--------2--------2--------2--2------2--2--2--------2--------2--------2----
D|------2--------2--------2--------2--2------2--2--2--------2--------2--------2----
A|------0--------0--------0--------0--0------0--0--0--------0--------0--------0----
E|---------------------------------------------------------------------------------



E|--0--0------0--0--0--0--0--------0--------0------0--0------0--0--0--0--0-----
B|--1--1------1--1--1--1--0--------0--------0------0--0------0--0--0--0--1-----
G|--2--2------2--2--2--2--2--------2--------2------2--2------2--2--2--2--2-----
D|--2--2------2--2--2--2--2--------2--------2------2--2------2--2--2--2--2-----
A|--0--0------0--0--0--0--0--------0--------0------0--0------0--0--0--0--0-----
E|-----------------------------------------------------------------------------



E|--0--------0------0--0------0--0--0--0------------------------------------------
B|--1--------1------1--1------1--1--1--1------------------------------------------
G|--2--------2------2--2------2--2--2--2--0--------0--------0--------0--0------0--
D|--2--------2------2--2------2--2--2--2--2--------2--------2--------2--2------2--
A|--0--------0------0--0------0--0--0--0--2--------2--------2--------2--2------2--
E|----------------------------------------0--------0--------0--------0--0------0--



E|------------0--------0--------0--------0--0------0--0--0--------1--------1------
B|------------1--------1--------1--------1--0------0--0--0--------0--------0------
G|--0--0------2--------2--------2--------2--2------2--2--2--------2--------2------
D|--2--2------2--------2--------2--------2--2------2--2--2--------2--------2------
A|--2--2------0--------0--------0--------0--0------0--0--0--------0--------0------
E|--0--0--------------------------------------------------------------------------



E|--1------1--1------1--1--1------0------0------0------0--0------------------0----0--
B|--0------0--0------0--0--0------1------1------1------0--1------------------1----1--
G|--2------2--2------2--2--2------2------2------2------2--2------------------2----2--
D|--2------2--2------2--2--2------2------2------2------2--2------2--2--2--2--2----2--
A|--0------0--0------0--0--0------0------0------0------0--0------2--2--2--2--0----0--
E|---------------------------------------------------------------0--0--0--0----------



E|----0----0--0----0--0--0----0----0----0----0--0----0--0--0----0----0----0----0--0-----
B|----1----1--1----1--1--1----1----1----1----1--1----1--1--1----0----0----0----0--0-----
G|----2----2--2----2--2--2----2----2----2----2--2----2--2--2----2----2----2----2--2-----
D|----2----2--2----2--2--2----2----2----2----2--2----2--2--2----2----2----2----2--2-----
A|----0----0--0----0--0--0----0----0----0----0--0----0--0--0----0----0----0----0--0-----
E|--------------------------------------------------------------------------------------



E|--0--0--0----0----0----0----0--0----0--0--0----2----2----2----2--2----2--2--2----1--
B|--0--0--0----0----0----0----0--0----0--0--0--------------------------------------0--
G|--2--2--2----2----2----2----2--2----2--2--2--------------------------------------2--
D|--2--2--2----2----2----2----2--2----2--2--2----2----2----2----2--2----2--2--2----2--
A|--0--0--0----0----0----0----0--0----0--0--0----2----2----2----2--2----2--2--2----2--
E|-----------------------------------------------0----0----0----0--0----0--0--0----0--



E|--1----1----1--1----1--1--1----4----4----4----4--4----4--4--4----0----0----0----0--0--
B|--0----0----0--0----0--0--0----4----4----4----4--4----4--4--4----8----8----8----8--8--
G|--2----2----2--2----2--2--2----5----5----5----5--5----5--5--5----9----9----9----9--9--
D|--2----2----2--2----2--2--2----5----5----5----5--5----5--5--5----9----9----9----9--9--
A|--0----0----0--0----0--0--0----4----4----4----4--4----4--4--4----0----0----0----0--0--
E|--------------------------------------------------------------------------------------



E|--0--0--0----0----0----0----0--0----0--0--0--0--0--0----0----0----0----0--0----0--0--0--
B|--8--8--8----8----8----8----8--8----8--8--8--8--8--4----4----4----4----4--4----4--4--4--
G|--9--9--9----9----9----9----9--9----9--9--9--9--9--5----5----5----5----5--5----5--5--5--
D|--9--9--9----9----9----9----9--9----9--9--9--9--9--5----5----5----5----5--5----5--5--5--
A|--0--0--0----0----0----0----0--0----0--0--0--0--0--0----0----0----0----0--0----0--0--0--
E|----------------------------------------------------------------------------------------



E|--0----0----0----0--0----0--0--0------0-------------------------------------0----------
B|--1----1----1----1--1----1--1--1------0---------------------1------------1-------------
G|--2----2----2----2--2----2--2--2------2------------------2------------2----------2-----
D|--2----2----2----2--2----2--2--2------2---------------2------------2-------------------
A|--0----0----0----0--0----0--0--0------0------------0--------------------------------0--
E|---------------------------------------------------------------------------------------



E|--0-------------------0----------------------------------------------0---------
B|--1----------------1-------1---------------1-----------------1-----------------
G|--2-------------2-----------------------2-------2---------------2--------------
D|--2----------2-----------------------2--------------------2--------------------
A|--0-------------------------------0--------------------0-----------------------
E|-------------------------------------------------------------------------------



E|----------------------0--------0--------0--------0--0------0--0--0--------0--------0--
B|--1-------------------1--------1--------1--------1--1------1--1--1--------4--------4--
G|-----2----------------2--------2--------2--------2--2------2--2--2--------5--------5--
D|--------2-------------2--------2--------2--------2--2------2--2--2--------5--------5--
A|-------------0--------0--------0--------0--------0--0------0--0--0--------------------
E|--------------------------------------------------------------------------------------



E|----0--------0--0------0--0--0--------0--------0--------0--------0--0------0--0--0--
B|----4--------4--4------4--4--4--------8--------8--------8--------8--8------8--8--8--
G|----5--------5--5------5--5--5--------9--------9--------9--------9--9------9--9--9--
D|----5--------5--5------5--5--5--------9--------9--------9--------9--9------9--9--9--
A|------------------------------------------------------------------------------------
E|------------------------------------------------------------------------------------
http://www.guitartabcreator.com
Guitar Tab Creator is intended to store guitar tab created through the tool. It currently does not support in-line text editing. Any text you place in here will be lost. If you need to comment on your tab, please use the "Tab Notes" section located below.