OCTOBER 2 LIGHT

(/) Slide Up  (\) Slide Down  (h) Hammer On  (p) Pull Off  (b) Bend (r) Release (v) Vibrato


E|--------3-----------3-----------3-----------3--------
B|-----1-----1-----1-----1-----1-----1-----1-----1-----
G|--2-----------2-----------2-----------2--------------
D|-----------------------------------------------------
A|-----------------------------------------------------
E|-----------------------------------------------------



E|--------3-----------3-----------3-----------3-----
B|-----1-----1-----1-----1-----1-----1-----1-----1--
G|--0-----------0-----------0-----------0-----------
D|--------------------------------------------------
A|--------------------------------------------------
E|--------------------------------------------------



E|--------3-----------3-----------3-----------3--
B|-----1-----1-----1-----1-----1-----1-----1-----
G|-----------------------------------------------
D|--2-----------2-----------2-----------2--------
A|-----------------------------------------------
E|-----------------------------------------------



E|--------3-----------3-----------3--------
B|-----1-----1-----1-----1-----1-----1-----
G|-----------------------------------------
D|--3-----------3-----------3--------------
A|--------------------------------------3--
E|-----------------------------------------
http://www.guitartabcreator.com
Guitar Tab Creator is intended to store guitar tab created through the tool. It currently does not support in-line text editing. Any text you place in here will be lost. If you need to comment on your tab, please use the "Tab Notes" section located below.