Marjo---Ailleurs---[SOLO]

(/) Slide Up  (\) Slide Down  (h) Hammer On  (p) Pull Off  (b) Bend (r) Release (v) Vibrato

Stave 1:

E|-------------------------------------------------10------------10-----------------------------
B|-------------7-----7-7/8-7h8p7-5----7-8-10-10b10----10-----10--------12----10-----------------
G|-----9b9-------7-9--------------------------------------11--------11----11----9-7---9b9-------
D|---7------------------------------------------------------------------------------7-----------
A|-9--------------------------------------------------------------------------------------------
E|----------------------------------------------------------------------------------------------

Stave 2:

E|--------------------------------------10----12bp10-12----10-12b12--------------17b17-17b
B|-----------------------------------10----10-----------------------10v-------15----------
G|-9b9p7--9--------7---9b9-7----9/11---------------------------------------14-------------
D|-------------7-9---9--------------------------------------------------------------------
A|----------------------------------------------------------------------------------------
E|----------------------------------------------------------------------------------------

Stave 3:

E|-17-15-14-15-17---------------------------------------------------17-------------------
B|----------------17b17v--17b17p15-17-------15----15----15----17b17----17b17-15-15-------
G|---------------------------------------16----16----16----16----------------------------
D|---------------------------------------------------------------------------------------
A|---------------------------------------------------------------------------------------
E|---------------------------------------------------------------------------------------

Stave 4:

E|-------------------------------------------------
B|-15-15\14-14-14-14\12-12-12-12\10-10-10-10\8-8\7-
G|-------------------------------------------------
D|-------------------------------------------------
A|-------------------------------------------------
E|-------------------------------------------------

http://www.guitartabcreator.com
Guitar Tab Creator is intended to store guitar tab created through the tool. It currently does not support in-line text editing. Any text you place in here will be lost. If you need to comment on your tab, please use the "Tab Notes" section located below.