Marjo---J'lache pas---(solo)

(/) Slide Up  (\) Slide Down  (h) Hammer On  (p) Pull Off  (b) Bend (r) Release (v) Vibrato

(W|WW) Whole (H|HH) Half (Q|QQ) Quarter (E|EE) 8th (S|SS) 16th (T|TT) 32nd (X|XX) 64th

Stave 1:
t: null
E|--------------------------------------------------------------------------------
B|--------------------------------------------8-----------------8b8-8b8-8b8-----5-
G|------------------------------------5---7b7---7b7-5-------5---------------7b7---
D|----------------------5---5p7---5-7---7-------------5p7-7---7-------------------
A|-----3---3p5---3-5/7----7-----7-------------------------------------------------
E|-3/5---5-----5------------------------------------------------------------------

Stave 2:
t: null null null
E|----------------------------------------------------------
B|-5p8-----5------------------------------------------------
G|-----7b7---7b7-5---5-5---5-5---5-5--5--5--5--5--5--5--5v-\
D|-----------------7-----7-----7----------------------------
A|----------------------------------------------------------
E|----------------------------------------------------------

Stave 3:
t: X X null
E|------------------------------------------------------------------8-----8---------
B|-5-----5-5------------------------------------8---------8-8---8-8---8-----8-------
G|-5-----5-5------------------------------------7b9-5-5/9-----9---------9-----9-9v-\
D|---7-5------5h7-5p7---5---------------------5-------------------------------------
A|--------------------7---7-5-3---3-3---3-5-7---------------------------------------
E|------------------------------5-----5---------------------------------------------

Stave 4:
t: null
E|--10b12-12-12-10---------8-8-8v--------------------------------------------------------
B|-----------------8p10-10--------8---8---5-8----8-5-8-8---5-5-----5-5---5-5---5-8---8-5-
G|--------------------------------7b9-7b9-5-7----7-5-7-7b9-5-5-----5-5---5-5---5-7b9-7-5-
D|-------------------------------------------------------------5/7-----7-----7-----------
A|---------------------------------------------------------------------------------------
E|---------------------------------------------------------------------------------------

Stave 5:
t: undefined undefined
E|----------------------------------------------------------------------------
B|-8b10-10-10-10-10-10v-----5---------------------------------------5-8-5-----
G|----------------------7b9---7b9-7b9-7-5-7b9p5---5-------------5-7-------7b9-
D|----------------------------------------------7-----------5-7---------------
A|----------------------------------------------------3-5-7-------------------
E|----------------------------------------------------------------------------

http://www.guitartabcreator.com
Guitar Tab Creator is intended to store guitar tab created through the tool. It currently does not support in-line text editing. Any text you place in here will be lost. If you need to comment on your tab, please use the "Tab Notes" section located below.