Creamy

(/) Slide Up  (\) Slide Down  (h) Hammer On  (p) Pull Off  (b) Bend (r) Release (v) Vibrato


E|--------------------------------------------
B|--------------------------------------------
G|--7--7--7-----------------5--5--5-----------
D|-----------5--5--5--5--5-----------3--3--3--
A|--------------------------------------------
E|--------------------------------------------



E|-----------------------------------------------------------------------------
B|--7--7--7--7--7----9--9--9--9--9--9----5--5--5--5--5--5----9--9--9--9--9--9--
G|--7--7--7--7--7----9--9--9--9--9--9----5--5--5--5--5--5----9--9--9--9--9--9--
D|--5--5--5--5--5----7--7--7--7--7--7----3--3--3--3--3--3----7--7--7--7--7--7--
A|-----------------------------------------------------------------------------
E|-----------------------------------------------------------------------------



E|-----------------------------------------------------------------------
B|--7--7--7--7--7--7----9--9--9--9--9--9----5--5--5--5--5--5----7--7--7--
G|--7--7--7--7--7--7----9--9--9--9--9--9----5--5--5--5--5--5----7--7--7--
D|--5--5--5--5--5--5----7--7--7--7--7--7----3--3--3--3--3--3----5--5--5--
A|-----------------------------------------------------------------------
E|-----------------------------------------------------------------------



E|--
B|--
G|--
D|--
A|--
E|--
http://www.guitartabcreator.com
Guitar Tab Creator is intended to store guitar tab created through the tool. It currently does not support in-line text editing. Any text you place in here will be lost. If you need to comment on your tab, please use the "Tab Notes" section located below.