"simple song - bass verse with accented variation"

(/) Slide Up  (\) Slide Down  (h) Hammer On  (p) Pull Off  (b) Bend (r) Release (v) Vibrato

E|----------------------------------------------------
B|----------------------------------------------------
G|----------------------------------------------------
D|-----9-----------7-------6-----------6--------------
A|---9---7-------7---5-------4-7---------4-7----------
E|-7-----------5-----------------4-----------4--4-5-6-

Stave 1:

E|----------------------------------------------------
B|----------------------------------------------------
G|----------------------------------------------------
D|-----9-------7-----------6-----------6--------------
A|---9---7-------7---5-------4-7---------4-7----------
E|-7---------------5-------------4-----------4--4-5-6-

http://www.guitartabcreator.com
Guitar Tab Creator is intended to store guitar tab created through the tool. It currently does not support in-line text editing. Any text you place in here will be lost. If you need to comment on your tab, please use the "Tab Notes" section located below.