Magic Adventure Land - Bass - Verse, Change, and Chorus

(/) Slide Up  (\) Slide Down  (h) Hammer On  (p) Pull Off  (b) Bend (r) Release (v) Vibrato

Stave 1:

E|-------------------------------------------------------------------------------------
B|-------------------------------------------------------------------------------------
G|-------------------------------------------------------------------------------------
D|--------------------------------------5----------------------------------------5-----
A|--0----0----3----3----5----5----5--7-------0----0----3----3----5----5----5--7-----5--
E|-------------------------------------------------------------------------------------

Stave 2:

E|-------------------------------------------------------------------------------------
B|-------------------------------------------------------------------------------------
G|----------------------------------------------------------------------------------5--
D|--7----7----5----5----4----4----2--4--2--0----7----7----5----5----4----4----2--4-----
A|-------------------------------------------------------------------------------------
E|-------------------------------------------------------------------------------------

Stave 3:

E|----------------------------------------------------------------------
B|----------------------------------------------------------------------
G|----------------------------------------------------------------------
D|--7----5--7--9--7-----------------------------------------------------
A|---------------------7/9\7----5/7----5----3--5--7--5------------------
E|--------------------------------------------------------5/7\5----3/5--

http://www.guitartabcreator.com
Guitar Tab Creator is intended to store guitar tab created through the tool. It currently does not support in-line text editing. Any text you place in here will be lost. If you need to comment on your tab, please use the "Tab Notes" section located below.