Ishq Sufiyana

(/) Slide Up  (\) Slide Down  (h) Hammer On  (p) Pull Off  (b) Bend (r) Release (v) Vibrato


E|--------------10------10------10------10--13--10----------------------------------10--
B|------11--13------13------13------13--------------11--13--11--13--11--13--11--13------
G|--10----------------------------------------------------------------------------------
D|--------------------------------------------------------------------------------------
A|--------------------------------------------------------------------------------------
E|--------------------------------------------------------------------------------------



E|------------------------------10--------------
B|--13------11------13------13------13------11--
G|------12------12------12--------------12------
D|----------------------------------------------
A|----------------------------------------------
E|----------------------------------------------
http://www.guitartabcreator.com
Guitar Tab Creator is intended to store guitar tab created through the tool. It currently does not support in-line text editing. Any text you place in here will be lost. If you need to comment on your tab, please use the "Tab Notes" section located below.