Opression

(/) Slide Up  (\) Slide Down  (h) Hammer On  (p) Pull Off  (b) Bend (r) Release (v) Vibrato

E|--------------------------------------------------------------------------------------------
B|--------------------------------------------------------------------------------------------
G|--------------------------------------------------------------------------------------------
D|--------------------------------------------------------------5--5--------------------------
A|-----------------------------------------------5--6--7--7--7--------7--7--7--6--6--5--5--5--
E|--5--5--8\0------5--5--8\0------5--5--8--8--8-----------------------------------------------



E|---------------------------------------------------------------
B|---------------------------------------------------------------
G|---------------------------------------------------------------
D|-----------------7--5--7--7--5-----------------7--5------------
A|-----------------------------------------------------7--5------
E|--5--5--8--8--8-----------------5--5--8--8--8------------------



E|----------------------------------------------------------------------
B|----------------------------------------------------------------------
G|----------------------------------------------------------------------
D|--------------------------------5--5----------------------------------
A|-----------------5--6--7--7--7--------7--7--7--6--6--5--5--5------7v--
E|--5--5--8--8--8-------------------------------------------------------
http://www.guitartabcreator.com
Guitar Tab Creator is intended to store guitar tab created through the tool. It currently does not support in-line text editing. Any text you place in here will be lost. If you need to comment on your tab, please use the "Tab Notes" section located below.