Wonderful Tonight

(/) Slide Up  (\) Slide Down  (h) Hammer On  (p) Pull Off  (b) Bend (r) Release (v) Vibrato

Paul, sana maintindihan mo!
Tip:

Practice,practice,practice!
Listen to the song very well.
Kung d mo makuha tingnan mo ung video ko tpos pakinggan mo kung pano ko inexecute.

Intro:1st part
E|--------------------------------------------------------------------------------------------0-----
B|--------------0-----------------------0-----------------------0-----------------0-----1--------3--
G|--------0-----0--2--0--2--------2-----2--2--0-----------0-----0--2--0--2-----------0-----0--------
D|-----0-----0-----------------0-----0-----------2-----2-----2--------------------------------------
A|--------------------------------------------------3-----------3--------------0--------0-----------
E|--3-----------3-----------2-----------2-----------------------------------2-----3--------------3--


Intro:2nd part
E|-----------5b3--5--------------5b3--0------------------------------7-----8------12-----10--
B|-------------------------3-------------------8-----10b8--10--------8-----10-----13-----12--
G|-----0----------------2-----2-------------0-----0---------------0--------------------------
D|--0-----0----------0-----------------------------------------0--------0------0------0------
A|-------------------------------------------------------------------------------------------
E|---------------------------------------8---------------------------------------------------


Verse: gagawin mo ksi ito ng 2x pero wag ka na magbalik dun sa B-0.... start ka kaagad dun sa B-0,G-0,E-3
E|-----------------------------------------------------------------------------------------------------
B|--0--0--1--0--------3--------3--------------------0--0--1--0--------------------3-----------------0--
G|-----0--------2-----------2-----2-----2--------0-----0--------2--------2--2-----------2--------0-----
D|-----------------------0-----------0--------2-----------------------0--------0-----0--------0--------
A|-----------------------------------------3-----------3-----------------------------------------------
E|-----3-----------2-----------------------------------------------2-----------------------3-----------


Ref.
E|--------------0--0--0---------------------------------------------------------------------------------------------------------
B|-----------0--0--0--0--3--------------3-----------------0-----0--3------------------0--1--1--------1--1--0--------------------
G|--------0--------------2-----2-----2-----2-----2-----------0--0--2--0---------0--2-----0--0-----0-----0-----2--2--2--0-----0--
D|-----2--------------------------0-----------0--------0--------------2--2p0h2-----------------2--------------0--0--0-----0-----
A|--3------------------------------------------------------------------------------------3--3-----------3-----------------------
E|--------------------------2-----------------------3-----------2---------------------------------------------------------------


2nd Verse opening: ito ung gagawin mong variation after nung Intro 1st part.
E|-----------
B|--------0--
G|-----0-----
D|--0--------
A|-----------
E|-----------

Runthrough:

Intro:1st & 2nd part
Verse: gwin mo ung 1st verse na tab
Ref.
Intro:1st part lng
2nd Verse: d2 ganun prin prang 1st verse tab pero iba ung pagpasok ksi 1st part lng ng intro ginawa mo e.
Ref.
Bridge: kapa lng ako d2 na part ito ung ginamit ko na chord (G-D/F#-Em){mabilis ang changing nitong 1st 3 chords}tpos C-D-(G-D/F#-Em)-C-D-C-D... mag arpeggio ka lng un lng ginawa ko e gumawa ako ng arpeggio variation ng chords para makuha mo.
Adlib: gawin mo lng yun Intro 1st & 2nd part
Last Verse: gawin mo ung 1st Verse tab
Ref.
Outro: gawin mo lng ulit ung 1st & 2nd part.


http://www.guitartabcreator.com
Guitar Tab Creator is intended to store guitar tab created through the tool. It currently does not support in-line text editing. Any text you place in here will be lost. If you need to comment on your tab, please use the "Tab Notes" section located below.