Wagon Wheel

(/) Slide Up  (\) Slide Down  (h) Hammer On  (p) Pull Off  (b) Bend (r) Release (v) Vibrato


E|------------------------------------------------------------------------------------------------
B|------------------------------------------------------------------------------------------------
G|---------------------------------------------------------------------------8--2--7--2--6--2--4--
D|--------7--7--9--9/11--11--11--12--12--11--11--9--9--9--9--11--9--9--7--7-----------------------
A|--7--9------------------------------------------------------------------------------------------
E|------------------------------------------------------------------------------------------------



E|--------------------------------------------------------------
B|--------------------------------------------------------------
G|--2--5--2--6--2--8--2--6--2--6--2--4--2--5--2--6--2--8--7--6--
D|--------------------------------------------------------------
A|--------------------------------------------------------------
E|--------------------------------------------------------------
http://www.guitartabcreator.com
Guitar Tab Creator is intended to store guitar tab created through the tool. It currently does not support in-line text editing. Any text you place in here will be lost. If you need to comment on your tab, please use the "Tab Notes" section located below.